a b c d e f g h i j k l m n o p q r s t u v w x y z 0-9

Allegro

Canciones Populares

			
Esta cancion es exelente para principiantes jeje como yo no se
mucho pero tengo con que defenderme

"Nadie dijo que el circulo de "SOL" fuera facil"
    |-0--0--1--3--|-3--1--0-----|----------0--|-0-----------|-0--0--1--3--|
|-------------|----------3--|-1--1--3-----|-----3-3-----|-------------|
|-------------|-------------|-------------|-------------|-------------|
|-------------|-------------|-------------|-------------|-------------|
|-------------|-------------|-------------|-------------|-------------|
|-------------|-------------|-------------|-------------|-------------|


|-3--1--0-----|----------0--|-------------|-------0-----|----0-1-0----|
|----------3--|-1--1--3-----|-3---1-1-----|-3--3-----1--|-3---------1-|
|-------------|-------------|-------------|-------------|-------------|
|-------------|-------------|-------------|-------------|-------------|
|-------------|-------------|-------------|-------------|-------------|
|-------------|-------------|-------------|-------------|-------------|


|----0-1-0----|-------------|-0--0--1--3--|-3--1--0-----|----------0--|
|-3---------3-|-1--3--------|-------------|----------3--|-1--1--3-----|
|-------------|-------0-----|-------------|-------------|-------------|
|-------------|-------------|-------------|-------------|-------------|
|-------------|-------------|-------------|-------------|-------------|
|-------------|-------------|-------------|-------------|-------------|


|-------------||
|-3---1-1-----||
|-------------||
|-------------||
|-------------||
|-------------||

Fuente: tusacordes.com