a b c d e f g h i j k l m n o p q r s t u v w x y z 0-9

Alf

Canciones Populares

			
tema musical de ALF

E |----------------8-------------------------------8-----------------|
B |------6-8--8h10---8-5-8--6------------6-8--8h10---8-5--10--10-12--|
G |-7h9-----------------------9-7---7h9------------------------------|
D |------------------------------------------------------------------|
A |------------------------------------------------------------------|
E |------------------------------------------------------------------|

E |---------------8-10-8--------8--12--10--------------------8----8--|
B |-8--10--12-12----------10-12-----------12-10--8-10-12-12----10---8|
G |------------------------------------------------------------------|
D |------------------------------------------------------------------|
A |------------------------------------------------------------------|
E |------------------------------------------------------------------|

E |---------------------------|
B |---------------------------|
G |-9--10--8--6---------------|
D |---------------------------|
A |---------------------------|
E |---------------------------|

Fuente: tusacordes.com