a b c d e f g h i j k l m n o p q r s t u v w x y z 0-9

A Las Barricadas

Canciones Populares

			
A las barricadas 

                                                                 
Vamos a introducir aqui por la red alguna cancioncilla revolucionaria



                                                                              
E||------------------------|-----------------------|-------------------------|
B||--1----1----------------|-----------------------|-------1---1-1-----------|
G||-----------3-1----1---0-|------------------1----|--0-------------3--1--0--|
D||------------------------|--3----3---1-3---------|-------------------------|
A||------------------------|-----------------------|-------------------------|
E||------------------------|-----------------------|-------------------------|


                                                                         
----------------------|--------------1----------|-----------------------|
-------------1--------|--1--1--1---1------1-----|-----------------------|
-------1---3----------|-----------------------3-|--1----1---0------1----|
--3-------------------|-------------------------|-------------3---------|
----------------------|-------------------------|-----------------------|
----------------------|-------------------------|-----------------------|


                                                                           
--------------------------|-----------------------|-----------------------|
-----1--1---1-1-----------|-----------------------|-----------------------|
--0--------------3--1--0--|-------1---0-----------|--1----1---1------1----|
--------------------------|--3----------3------1--|-------------1---------|
--------------------------|-----------------------|-----------------------|
--------------------------|-----------------------|-----------------------|


                                                                          
------------------------|-------------------------|----------------------|
------------------------|--4-----4-----2----1---1-|--1----1-----1--------|
--3--3--3---3------3----|-----3-----3-------------|-----------3----------|
--------------1---------|-------------------------|----------------------|
------------------------|-------------------------|----------------------|
------------------------|-------------------------|----------------------|


                                                                            
--------------1---------|------------------------|-------------------------|
--1--1--1---1------1----|------------------------|-------1---1-1-----------|
------------------------|--1--1--1---0------1----|--0-------------3--1--0--|
------------------------|--------------3---------|-------------------------|
------------------------|------------------------|-------------------------|
------------------------|------------------------|-------------------------|


                                                                          
-----------------------|--------------1---------|------------------------|
--------------1--------|--1--1--1---1------1----|------------------------|
-----0--1--3-----------|------------------------|--1--1--1---0------1----|
--3--------------------|------------------------|--------------3---------|
-----------------------|------------------------|------------------------|
-----------------------|------------------------|------------------------|


                                                                           
-------------------------|------------------------|-----------------------|
-------1---1-1-----------|------------------------|-----------------------|
--0-------------3--1--0--|-----0--1--0------------|--3----3---3------3----|
-------------------------|--3-----------3------1--|-------------1---------|
-------------------------|------------------------|-----------------------|
-------------------------|------------------------|-----------------------|


                                                                        
-----------------------|-------------------------|---------------------|
-----------------------|--4-----4-----2----1---1-|--1----1----1--------|
--3----3---3------3----|-----3-----3-------------|---------------------|
-------------1---------|-------------------------|---------------------|
-----------------------|-------------------------|---------------------|
-----------------------|-------------------------|---------------------|


                                                                            
--------------1---------|------------------------|-------------------------|
--1--1--1---1------1----|------------------------|-------1---1-1-----------|
------------------------|--1--1--1---0------1----|--0-------------3--1--0--|
------------------------|--------------3---------|-------------------------|
------------------------|------------------------|-------------------------|
------------------------|------------------------|-------------------------|


                                                                          
-----------------------|--------------1---------|------------------------|
--------------1--------|--1--1--1---1------1----|------------------------|
-----0--1--3-----------|------------------------|--1--1--1---0------1----|
--3--------------------|------------------------|--------------3---------|
-----------------------|------------------------|------------------------|
-----------------------|------------------------|------------------------|


                                                   
-------------------------|-----------------------||
-------1---1-1-----------|-----------------------||
--0-------------3--1--0--|-----0--1--0-----------||
-------------------------|--3-----------3--------||
-------------------------|-----------------------||
-------------------------|-----------------------||

Para cualquier duda consulta o critica mi correo es lin_oscar@hotmail.com

Fuente original ATAME [www.atame.org]
Colaborador original: Oscar [lin_oscar@hotmail.com]

Fuente: tusacordes.com