a b c d e f g h i j k l m n o p q r s t u v w x y z 0-9

A La Orilla De Un Palmar

Canciones Populares

			
Esta es una canción tradicional Mexicana que data de principios del siglo pasado.
La arreglé para dos guitarras. En la INTRO apunté como se escucharía con dos 
tarras. Cuando es la parte con letra la segunda guitarra solamente acompaña la
melodía a rimo de 2/4, es decir, un bajo y rasgueo.

INTRO Guitarra 1

E ---0-4-4-4-4-2-4-0----------4-7-7-7-5-4-5-7-9--
B -0---------------------------------------------
G ---1-4-4-4-4-2-4-1----------4-8-8-8-6-4-6-8-9--
D -2---------------------------------------------
A -----------------------------------------------
E -----------------------------------------------

INTRO Guitarra 2
                  E        E7              A
E -------------------0-------------------------5--
B -------------------0--4--3------3----------5----
G -------------------1-----1------1--1-2-4-6---7--
D -------------------2-----2------0---------------
A --------------------------------2----------7----
E ----------------0-------------0----0-2-4-5------

Guitarra 1

E -5-5-7-5-4-2-4-0-----9-9-7-2-5---0-4-7-12-------|
B -------------------------------4-0--------------|
G -6-6-8-6-4-2-4-1-----9-9-8-2-6---1--------------|
D -------------------------------4----------------|
A ------------------------------------------------|
E ------------------------------------------------|

Guitarra 2
           B7                       E
E ---------2------0----0-----2----2-0-------------|
B ---------0------0----0-----0----0-0-------------|
G ---------2------1----1-----2----2-1-------------|
D ---------1------2----2-----1----4-2-------------|
A ---------2------2--2-----2-X--2---2-------------|
E ---------0----0------------2------0-------------|

MELODÍA Parte A
                           E                            B7
E ----0---4--4--4------2---4-------0--0--2----4--5---4--2--
B -0----------------------------0--------------------------
G ----1---4--4--4------2---4-------1--1--2----4--6---4--2--
D -2----------------------------2--------------------------
A ---------------------------------------------------------
E ---------------------------------------------------------
   A lao  ri-lla deun  pal-mar, yo vi a  una  jo-ven be-lla

                                                   E
E --------------------7----9--9--7--2---5---4--2---0-------|
B -4--5--7---5--4--7---------------------------------------|
G --------------------8----9--9--8--2---6---4--2---1-------|
D -4--6--8---6--4--8---------------------------------------|
A ---------------------------------------------------------|
E ---------------------------------------------------------|
   su bo-qui-ta de co-ral, sus o-ji-tos dos es-tre-llas,

Parte 2
   E                    E7                           A
E ----0--4---4--4---2---4---4---7-----7--7--5--4---7-5------
B -0--------------------------------------------------------
G ----1--4---4--4---2---4---4---8-----8--8--6--4---8-6------
D -2--------------------------------------------------------
A ----------------------------------------------------------
E ----------------------------------------------------------
   al pa-sar le pre-gun-té, que quién es-ta-ba con e-lla

                B7         E         B7              E
E -2-4--5---5---7--5---4---0---9--9--7--2--4--5--2---0-----|
B ---------------------------------------------------------|
G -2-4--6---6---8--6---4---1---9--9--8--2--4--6--2---1-----|
D ---------------------------------------------------------|
A ---------------------------------------------------------|
E ---------------------------------------------------------|
   y me con-tes-tó llo-ran-do, só-la vi-vo en el pal-mar.

Parte 3
               B7                                E
E -7---11---9--7--5--11--5--5---5--9--9----9--7--4----7---11-
B -----------------------------------------------------------
G -8---11---9--8--6--11--6--6---6--9--9----9--8--4----8---11-
D -----------------------------------------------------------
A -----------------------------------------------------------
E -----------------------------------------------------------
   Soy huer-fa-ni-ta ay, no ten-go pa-dre, ni mad-re, nin-gún

     B7                                E
E -9-7--5--11--5-----5--5----7--9---7--4-------0--4--4--4--2-
B ------------------------------------------0----------------
G -9-8--6--11--6-----6--6----8--9---8--4-------1--4--4--4--2-
D ------------------------------------------2----------------
A -----------------------------------------------------------
E -----------------------------------------------------------
   a-mi-go ay, quien me quie-ra con-so-lar; so-li-ta pa-so la

      E7                    A                               E   
E -4--0--4-7---7--7---5--4--5---7--9---5-5--7--5--4---2-4---0-
B ------------------------------------------------------------
G -4--1--4-8---8--8---6--4--6---8--9---6-6--8--6--4---2-4---1-
D ------------------------------------------------------------
A ------------------------------------------------------------
E ------------------------------------------------------------
   vi-da a lao ri-lla de un pal-ma-ar, y so-li-ta voy y ven-go

         B7            E
E -9--9--7---4-5---2---0---|
B -------------------------|
G -9--9--8---4-6---2---1---|
D -------------------------|
A -------------------------|
E -------------------------|
   co-mo las o-las del mar.

PUENTE En esta parte se puede tocar la parte uno instrumental y después
         se puede continuar con la parte 3 cantada hasta el final.

Fuente original ATAME [www.atame.org]
Colaborador original: Jorge Vargas Johnston [jorvarjohn_61@hotmail.com]

Fuente: tusacordes.com