a b c d e f g h i j k l m n o p q r s t u v w x y z 0-9

9am

Canciones Populares

			
9am:


                    
                                         x2 

1||--------------------------------|------------------------------|------------------------------|
2||--------------------------------|------------------------------|------------------------------|
3||----4------ 4------4-------4  |------3-----3------3-----3-|------1-----1-------1-----1-|            
4||-------6--------------6--------|---------4-------------4----|-----------2------------2---  |               
5||--6-------------6--------------|---4------------4-----------|--- 2------------2------------|
6||--------------------------------|------------------------------|-------------------------------|

1||------------------------|
2||------------------------|
3||-------0--------0------|
4||------------3-----------|
5||----3-------------------|
6||------------------------|

Fuente: tusacordes.com