a b c d e f g h i j k l m n o p q r s t u v w x y z 0-9

Murguita Del Sur

Bersuit Vergarabat

			
Cuatro ebrios...
|---------------------------------|
|---------------------------------|
|--------4-4--------4-4-----------|
|-2-2-2-------2-2-2---------------|

Otra vez...				Primera parte
|-----------------------------------|--------------------|
|-----------------------------------|--------------------|
|-----------------5--------2-4------|-----4-4-4-44-4-----|
|-2-2-4-2-4-3-3-3----3-3-3-----2--0-|-4------------------|
					Segunda parte
				    |--------------------|
 			 	    |--------------------|
				    |----4---------------|
				    |-4-----2--2--0-0----|

Por qué...
|---------------------------------------------------------------------
|------------------------------------------------------5-5------------
|-------7-7--------7-7/9-7-------7-7--------7-7--7-7-7----7-----------
|-5-5-5------5-5-5---------5-5-5------5-5-5---------------------------

---------------------------------------------------------|
-------7-7/9-7--------7-7/9-7-------7-7----------7-7-4---|
-5-5-5----------5-5-5---------5-5-5-------5-5-5---5------|
---------------------------------------------------------|

No hay  nada...	x2		No queda nada...
|-----------------------------| |-----------------------| Empieza de arriba otra vez
|---7---------7-7-4-4-4-------| |-------9-9/11-9--------|
|-------5-5-5--5--------------| |-7-7-7----------7-7-7--|
|-----------------------------| |-----------------------|

Solo
|--------------11/13/14-14-11/13-13--11-11---------------------------------
|------11/12/14--------------------14------12/14-14-11/12-1211---11/12/14-
|-12/14---------------------------------------------------------14---------
|--------------------------------------------------------------------------

11/13/14-13/14-14/16-13-13--13-13/1413---13/1416-13/1413--13/1416-13/1413
----------------------------------------16-----------------16-----------------
------------------------------------------------------------------------------
------------------------------------------------------------------------------

---13-13/14-14-----------13-14-14-14--13-14-16-14-14--141414--16-1616-14-16/18-16
-16------------16-16---16--------------------------------------------------------
---------------------------------------------------------------------------------
---------------------------------------------------------------------------------

-13/14-16-16-16-14-16/18-16-16/18-16-----| Después hace re y mi hasta el final
-----------------------------------------| que hace fa menor.
-----------------------------------------|
-----------------------------------------|

Consultas, dudas, marcelloelo@hotmail.com

Fuente original ATAME [www.atame.org]
Colaborador original: Francisco [marcelloelo@hotmail.com]

Fuente: tusacordes.com