a b c d e f g h i j k m n o p q r s t x v w y z 0-9

Esperando El Impacto

Bersuit Vergarabat

G
B
Em
C
D
			
 
1---------------------3-2---------------------
2----0-3-4---0--4--5-----13*--1-1--0-0---------
3--6-----------------------------------2------
4-----------------------------------------2-25*
5---------------------------------------------
6---------------------------------------------
  [* arrastrar el dedo desde la primer nota a la segunda]

G       B
¿A dónde iré?
                 Em
Como un fusil cargado
                    C
Tirando a cualquier lado
G         B
Es resignación
            Em
O es la lucidez
            C     G
Antes del final
G      B
Suelo bucear
              Em
En un mar hirviendo
             C        G
De cara a la libertad
G                     B
Hoy viajo solo y sin volver
                            Em
Será que el resto es languidecer
                          C
Me gusta estar cayendo
                          G
Voy esperando el impacto

1---3-2-0-2-----2-0-0--------------------------
2-0------------3---3-----0--0-3-1-0---0--------
3------------------------------------2-2-0-----
4------------------------------------------2-25*
5----------------------------------------------
6----------------------------------------------


4-----22?22------------------------------------
[estos cuatro mi se tocan, como una armonía]


    B               Em
Dejare mis sueños vencidos
             C      G
para otra ocasión
 G        B
Como un Big Bang
            Em
Quiero estrellarme
             C        G
Cerca de la eternidad
G                       B
Y hoy viajo solo y sin volver
                             Em
Será que el resto es languidecer
                          C
Me gusta estar cayendo
                          G
Voy esperando el impacto
                          B
Y en el abismo me encontraré
                       Em
y en la caída te nombrare
                          C
Me gusta estar cayendo
                          G
Voy esperando el impacto
  D   Em
Algo falló
 C                G
Todo sigue estando
  D    Em
Algo cambió
C                     G    D  Em
Todo sigue igual que ayer
         C                G   D  Em
Sigo esperando el impacto
         C                G   D  Em
Sigo esperando el impacto
        C                 G
Voy esperando el impacto <p>Fuente: tusacordes.com</p>