a b c d e f g h i j k l m n o p q r s t u v w x y z 0-9

Soy Rebelde

Attaque 77

			
SOY REBELDE

INTRO
|-2-2-2-2-0--------------------------|
|-----------3-3-3-3-2-2-2-3-2-2-2-2-2|SE REPITE 2 VECES
|------------------------------------|
|------------------------------------|


 yooooo soy         rebelde pq el mundo me hiso asiiiii pq ndie me a tratado con amooooooooooooor
|-2-2-2-2-2-2-2-2-2----------------------------------------5-5-5-5-5-5-5-5-5-5-5-----------------|
|-------------------0-0-0-0-0-0-0-0-0-0-0-0-0-0-5-5-5-5-5------------------------3-3-3-3-3-3-3-3-|
|------------------------------------------------------------------------------------------------|
|------------------------------------------------------------------------------------------------|


pq nadie me a qerido nunk a mi.........
|------------------------------------------------------------------------------------------------|
|0-0-0-0-0-0-0-0-0-0-0-0--2-2-2-2-2-2-2-2-2-2----------------------------------------------------| en los versos es
|------------------------------------------------------------------------------------------------| siempre lo mismo
|------------------------------------------------------------------------------------------------|

yo qisiera seeeeeeeeeeeer.. kmo el niño aqueeeeel   kmo el hombre aqel qe es feliiiiiz
|2-2-2-2-2-2-2-2-2-2-2-2-----------------------------------------------------5-5-5-5-5-5-5-5-5-5-|y en los coros
|---------------------------0-0-0-0-0-0-0-0-0-0-----5-5-5-5-5-5-5-5-5-5-5-5----------------------|tmb siempre es lo
|------------------------------------------------------------------------------------------------| mismo
|------------------------------------------------------------------------------------------------|


y qisiera daaaaaaaaaaaar   lo que hay en miiiii   todo a cambio de unaaaaaa  ilusioooooooooooooon
|2-2-2-2-2-2-2-2-2-2-2-2-----------------------------------------------------5-5-5-5-5-5-5-5-5-5-|
|---------------------------0-0-0-0-0-0-0-0-0-0-----5-5-5-5-5-5-5-5-5-5-5-5----------------------|
|------------------------------------------------------------------------------------------------|
|------------------------------------------------------------------------------------------------|


y cantaaaaaaaaaaaaaar     y reiiiiiiiiiiiiiiiiir y olvidaaaaaaaaaaaaaaar del dolor
|2-2-2-2-2-2-2-2-2-2-2-2-------------------------------------------------------2-2-2-2-2-2-2-2-2-2-|
|---------------------------0-0-0-0-0-0-0-0-0-0-----2-2-2-2-2-2-2-2-2-2-2-2------------------------|
|--------------------------------------------------------------------------------------------------|se repite 2
|--------------------------------------------------------------------------------------------------|veces y wea



|-2-2-2-2-0--------------------------|
|-----------3-3-3-3-2-2-2-3-2-2-2-2-2|SE REPITE 2 VECES
|------------------------------------|
|------------------------------------|


LUEGO SE REPITEN LOS VERSOS


        yooooo soy         rebelde pq el mundo me hiso asiiiii pq ndie me a tratado con amooooooooooooor
|-2-2-2-2-2-2-2-2-2----------------------------------------5-5-5-5-5-5-5-5-5-5-5-----------------|
|-------------------0-0-0-0-0-0-0-0-0-0-0-0-0-0-5-5-5-5-5------------------------3-3-3-3-3-3-3-3-|
|------------------------------------------------------------------------------------------------|
|------------------------------------------------------------------------------------------------|


pq nadie me a qerido nunk a mi.........
|------------------------------------------------------------------------------------------------|
|0-0-0-0-0-0-0-0-0-0-0-0--2-2-2-2-2-2-2-2-2-2----------------------------------------------------|
|------------------------------------------------------------------------------------------------|
|------------------------------------------------------------------------------------------------|

yo qisiera seeeeeeeeeeeer.. kmo el niño aqueeeeel   kmo el hombre aqel qe es feliiiiiz
|2-2-2-2-2-2-2-2-2-2-2-2-----------------------------------------------------5-5-5-5-5-5-5-5-5-5-|
|---------------------------0-0-0-0-0-0-0-0-0-0-----5-5-5-5-5-5-5-5-5-5-5-5----------------------|
|------------------------------------------------------------------------------------------------|
|------------------------------------------------------------------------------------------------|


y qisiera daaaaaaaaaaaar   lo que hay en miiiii   todo a cambio de unaaaaaa  ilusioooooooooooooon
|2-2-2-2-2-2-2-2-2-2-2-2-----------------------------------------------------5-5-5-5-5-5-5-5-5-5-|
|---------------------------0-0-0-0-0-0-0-0-0-0-----5-5-5-5-5-5-5-5-5-5-5-5----------------------|
|------------------------------------------------------------------------------------------------|
|------------------------------------------------------------------------------------------------|


y cantaaaaaaaaaaaaaar     y reiiiiiiiiiiiiiiiiir y olvidaaaaaaaaaaaaaaar del dolor
|2-2-2-2-2-2-2-2-2-2-2-2-------------------------------------------------------2-2-2-2-2-2-2-2-2-2-|
|---------------------------0-0-0-0-0-0-0-0-0-0-----2-2-2-2-2-2-2-2-2-2-2-2------------------------|
|--------------------------------------------------------------------------------------------------|
|--------------------------------------------------------------------------------------------------|


y cantaaaaaaaaaaaaaar     y reiiiiiiiiiiiiiiiiir y olvidaaaaaaaaaaaaaaar del dolor!!!!!!!!!
|2-2-2-2-2-2-2-2-2-2-2-2-------------------------------------------------------2-2-2-2-2-2-2-2-2-2-|
|---------------------------0-0-0-0-0-0-0-0-0-0-----2-2-2-2-2-2-2-2-2-2-2-2------------------------|
|--------------------------------------------------------------------------------------------------|
|--------------------------------------------------------------------------------------------------|

                   0HHHHHHHHHHHHHHHH
|-2-2-2-2-0--------------------------|
|-----------3-3-3-3-2-2-2-3-2-2-2-2-2|
|------------------------------------|
|------------------------------------|

DEL DOLOR           OHHHHHHHHHHHHHHHHHHHHHHHHHHHHHHHHH
|-2-2-2-2-0-------------------------------------------|
|-----------3-3-3-3-2-2-2-3-2-2-2-2-2-3-2-2-2-2-2-3-2-|
|-----------------------------------------------------|
|-----------------------------------------------------|


   TAMNBIEN LES DEJO LA LETRA

Yo soy rebelde por que el mundo me hizo así

Por que nadie me ha tratado con amor

Por que nadie me ha querido nunca a mi.

Yo soy rebelde porque siempre sin razón
Me negaron el cariño que pedí
Y me dieron solamente incomprensión.


Y yo quisiera ser como el niño aquel

Como el hombre aquel que es feliz

Y quisiera dar lo que hay en mi

todo a cambio de una ilusión


Y cantar y reír y olvidar mi dolor

Y cantar y reír y olvidar el dolor.


WENO AHI TA LA TABS PA BAJO DE ESTA EXELENTE SONG
ARRIVA ATTAQUE MIERDA!!!!! JEJEJE SI TIENEN ALGUNA CONSULTA O
QIEREN CORREGIR ALGO MI MSN ES RADAMAX123@HOTMAIL.COM
CHAU!!!! JAJAJ LA SONG BA PA VO PO ZAMBU JAJAJAJA

Fuente original ATAME [www.atame.org]
Colaborador original: RaDaX!!! [radamax123@hotmail.com]

Fuente: tusacordes.com