a b c d e f g h i j k l m n o p q r s t u v w x y z 0-9

Preso Del Olvido

Animal

			
...Me abrazo al latido...

G|---------------------------------------------------------------19/21~--|
D|-------------------------5/17h19p17h19p17h19p17h19p17h19-----19--------|
A|-----------------------------------------------------------------------|
E|-3h5-5555555-----------------------------------------------------------|

Riff Cuando entra la bateria, la parte mas pesada
                         x3
G|-------------------------|--------------------|
D|-------------------------|--------------------|
A|-6-5-3---5---------------|-6-5-3----5---------|
E|-------5---5-3-5-5555555-|--------5---5-3-5~--|

Verso ...Por querer llegar al sol...
                x4                                  x4
G|----------------|...Vulnerable    |----------------|
D|----------------|     es aquel... |----------------|
A|----------------|                  |----------------|
E|-88-777-5555555-|                  |-88-666-5555555-|

...Al fin quien, maneja el juego...
                    x3
G|--------------------|-------------------|------------------|
D|--------------------|---10--------12----|------------------|
A|-----------55555555-|-8----8---10----10-|-5555555555555555-|
E|-1-11-3-33----------|-------------------|------------------|

...Crecen firmes las espinas...  <----- x4
                                  ____________  _____________   ____________
                                /.1.2         /.3             / .4
G|-----------------------------|-------------|---------------|--------------|
D|-----------------------------|-------------|---3-3-----3-3-|--------------|
A|--------------5-555----------|-------------|---------------|--------------|
E|5-5-555--3-33-------2-222222-|111111111111-|-11-------1----|-1111-/  / -|
                                               pps s    ps s

Riff  x4
Verso x1

...Al fin quien, maneja el juego...
                    x3
G|--------------------|-------------------|------------------|
D|--------------------|---10--------12----|------------------|
A|-----------55555555-|-8----8---10----10-|-5555555555555555-|
E|-1-11-3-33----------|-------------------|------------------|


...Crecen firmes las espinas...
                                         x4
G|------------------------------------------|
D|------------------------------------------|
A|--------------5-555-----------------------|
E|5-5-555--3-33-------2-222222-111111111111-|

En la parte mas tranqui despues de un corte peque¤o hace asi:
                               x3
G|-------------------------------|--------------------------------------|
D|-------------------------------|--------------------------------------|
A|--------5-3-0------------------|------------5-3-----------------------|
E|-5~---3-------2~--3-2-1~---/5--|-55555555-3-----22222222-3-2-11111111-|
   ^                          ^
   ^--------------------------^
Ligado a la primer nota en la repeticion


...Crecen firmes las espinas...  <----- x4
                                  ____________  _____________ 
                                /.1.3         /.2.4           
G|-----------------------------|-------------|---------------|
D|-----------------------------|-------------|---3-3-----3-3-|
A|--------------5-555----------|-------------|---------------|
E|5-5-555--3-33-------2-222222-|111111111111-|-11-------1----|
                                               pps s    ps s

Final---> Termina con La colgado y slide a Si.

G|-----------------|Creo que es asi,
D|-----------------|es lo unico de lo 
A|-----------------|que no estoy seguro.
E|-5~--------5/7~--|

Dudas o comentarios a piri_22@hotmail.com

Fuente original ATAME [www.atame.org]
Colaborador original: Nicolas [piri_22@hotmail.com]

Fuente: tusacordes.com