a b c d e f g h i j k l m n o p q r s t u v w x y z 0-9

Milagro

Animal

			
Comienza así y sigue en los versos

G----------------------------
D----------------------------
A-0-1-0---0-1-0-5-5-5-4------
E----------------------------

En seguida que dice "siempre estarás co-men-zan-do"

G----------------------------
D----------------------------
A-0-1-0-5-0-0-0-0-0----------
E----------------------------

Cuando comienza el coro y dice "Milagro es la magia y la fuerza al querer"

G-----------------------------
D-----1-1---------------------    
A-0-0-----3-3-1-1-------------
E----------------------------- 
Cuando se acaba el coro se deja de repetir esta parte y se toca  A-A-A-A-A....  
y después:     
G--------------------
D--------------------
A-0-0-0-0-0-0-1-1-1--
E--------------------
Lo demás es lo mismo solo que se repiten los pedazos.

Fuente original ATAME [www.atame.org]
Colaborador original: Vicente Mercado [bisente@hotmail.com]

Fuente: tusacordes.com