a b c d e f g h i j k l m n o p q r s t u v w x y z 0-9

Lejos De Casa

Animal

			
A                                                              
D---||------------------------------|-----------------------------|-----
A---||------------------------------|-----------------------------|-----
F---||*-----------------------------|-----------------------0-----|-----
C---||*--------0--------3-----3-----|--------0--------3--------3--|-----
G---||------0-----0--1-----1-----1--|-----0-----0--1-----1--------|-----
C---||---0--------------------------|--0--------------------------|-----
                                                                        

                               B                                        
D----||--------------||---||-------------------------------|------------
A----||--------------||---||-------------------------------|------------
F---*||--------------||*--||*------------------------------|------------
C---*||--------------||*--||*--0--0--2--3--/--3------------|--0--0------
G----||--------------||---||---0--0--0--1--/--3--3--4^~~~--|--0--0------
C----||--------------||---||---0--0--------/--3--3---------|--0--0------
                                                                        

                                C                               P.M.    
D-------------------||-----||-------------------------------||----------
A-------------------||-----||-------------------------------||----------
F------------------*||-----||*-----------------------------*||----------
C---2--3--/--6--2--*||-----||*--0--------3-----0--------3--*||--3-------
G---0--1--/--4--0---||-----||---0--------1-----0--------1---||--1-------
C-------------------||-----||---0--------------0------------||----------
                                                                        

    -------    al parte B    al parte A                P.MP.MP.M.       
D----------||------------||------------||-------------------------------
A----------||------------||------------||-------------------------------
F---------*||-----------*||-----------*||-------------------------------
C---3--3--*||-----------*||-----------*||--------------3--2--1--0-------
G---1--1---||------------||------------||--------------3--2--1--0-------
C----------||------------||------------||--------------3--2--1--0-------

Fuente original ATAME [www.atame.org]
Colaborador original: mike gaskin [gaskin@acabtu.com.mx]

Fuente: tusacordes.com