a b c d e f g h i j k l m n o p q r s t u v w x y z 0-9

Lejos De Casa

Animal

			
TAB: hernan kryoz666@hotmail.com

/  = slide
b  = bend
v  = vibrato
^  = dejar sonar.

bueno, aka esta lejos de casa de animal completisima y bien sacada
si quieren que saque otras canciones que nadie mas saco
escribanme al mail y si alguien tiene la tab de sabia naturaleza 
por favor mandemela a kryoz666@hotmail.com que se me esta haciendo
dificil sacarla.

INTRO 

estando tan lejos de casa recordamos el amor aquel de ser..
D----------------------------------------------|
A----------------------------------------------|
F----------------------------------------0-----|
C------0-------3---3---------0-------3-----3---| x4
G----0----0-1----1---1-----0----0-1----1-------|
C--0---------------------0---------------------|

VARIACION 1

..lame el dolor, late un amor..
D------------------------|
A------------------------|
F------------------0-----|
C------0-------3-----3---| x4
G----0----0-1----1-------|
C--0---------------------|

D----------------|
A----------------|
F----------------| 
C----------------|
G---0-3--2-1-0---|
C---0-3--2-1-0---|

..resuena en mi pensamiento que se hace recuerdo aquella risa amiga..
D---------------------------|
A---------------------------|
F-----------------------0---|
C------0-------3---x4-----3-| x3
G----0---0---1--------------|
C--0------------------------|

..buey que triste..
D-------------------|
A-------------------|
F-------------------|
C--0-0-0-0-0-0------| 
G--0-0-0-0-0-0------|
C--0-0-0-0-0-0------|
pm.............

CORO

..lame el dolor, late un amor!..
D----------------------------------------|
A----------------------------------------|
F---------------3------------------------|
C---0-0--7-8--2-3------0-0--7-8--11-8----| x2
G---0-0--7-8--2-3------0-0--7-8--11-8----|
C---0-0--7-8--2----x3--0-0--7-8--11-8----|

..y comparando veo un poco la ventaja sabia cuando conoces tu origen..
D------------------------------------------------------------------------|
A------------------------------------------------------------------------|
F------------------------------------------------------------------------|
C---0-8---0-8---0-8---0-8--11-8---0-8---0-8---0-8---0-8----0-0-0-0-0-0-0-|
G---0-8---0-8---0-8---0-8--11-8---0-8---0-8---0-8---0-8----0-0-0-0-0-0-0-|
C---0-8---0-8---0-8---0-8--11-8---0-8---0-8---0-8---0-8----0-0-0-0-0-0-0-|
								        
pm .............

..lame el dolor, late un amor!..
D----------------------------------------|
A----------------------------------------|
F---------------3------------------------|
C---0-0--7-8--2-3------0-0--7-8--11-8----| x2
G---0-0--7-8--2-3------0-0--7-8--11-8----|
C---0-0--7-8--2----x3--0-0--7-8--11-8----|

merodeando tan lejos de casa, un nativo de ese barrio padre
D----------------------------------------|
A----------------------------------------|
F---------------3------------------------|
C---0-0--7-8--2-3------0-0--7-8--11-8----| x2
G---0-0--7-8--2-3------0-0--7-8--11-8----|
C---0-0--7-8--2----x3--0-0--7-8--11-8----|

D-------------------|
A-------------------|
F-------------------|
C--3--2--1--0-------|
G--3--2--1--0-------|
C--3--2--1--0-------|

tab: copyright 2001-2003 Hernán Martel.

se aceptan sugerencias sobre proximas tabs de temas.
suggestions accepted for next tabs of songs.

comments, suggestions, insults, at kryoz666@hotmail.com
comentarios, sugerencias, insultos en kryoz666@hotmail.com

Fuente original ATAME [www.atame.org]
Colaborador original: hernan [kryoz666@hotmail.com]

Fuente: tusacordes.com