a b c d e f g h i j k l m n o p q r s t u v w x y z 0-9

Esclavo De Ilusion

Animal

			
INTRO/VERSOS 

d------------------------------------------------------
A------------------------------------------------------
F---------5-----5-----5------------5-----5-----5-------
C-----2-3---3-2---2-3---3------2-3---3-2---2-3---3-----
G---0--------0---------------0--------0----------------
C-0----------------------1-0----------------------1-0--

REPETIR ESTO DOS VECES Y LUEGO 

d--*7----
A--*7----
F--*7----DESPUES COMIENSA LA VOZ
C--------
G--------
C--------

d------------------------------------------------------
A------------------------------------------------------
F---------5-----5-----5------------5-----5-----5-------
C-----2-3---3-2---2-3---3------2-3---3-2---2-3---3-----
G---0--------0---------------0--------0----------------
C-0----------------------1-0----------------------1-0--
  Fue lo que tenia y ahora tengo mas...

CORO

d------------------------------------
A-------3-------6-----6--------------
F-----5---5-------5-----5------------
C---5---------------5----------------
G-3----------------------------------
C-----------5/6----------------------
 Tengo un as de espadas y un as de corazon...

solo falta que lo acomodes

Fuente original ATAME [www.atame.org]
Colaborador original: Alonso Rico [chekes_42@hotmail.com]

Fuente: tusacordes.com