a b c d e f g h i j k l m n o p q r s t u v w x y z 0-9

Chalito

Animal

			
Afinación: E A D G

Intro
               x3                                    x4
G|---------------|---------------------|---------------|
D|---------3---4-|--------3--3---4-4-4-|---------3---4-|
A|-2h3-3-2---2---|-2h3-3-2--2--2-------|-2h3-3-2---2---|
E|---------------|---------------------|---------------|

Verso ...Buenas señora...
                      x4 
G|----------------------|
D|----------------------|
A|-3~-----3~-----3~-----|
E|------2------2------2-|

Coro 1
G|------------------------|    Aclaración:
D|------------------------|    Este simbolo  significa que hay que 
A|-3~----3~-----3~-----3-|    cortar la nota, que suene y se corte. 
E|------2------2------2---|    Como si esa nota tuviera un puntillo.

Coro 2 ...Tein poder...
               x8
G|---------------|
D|---------3---4-|
A|-2h3-3-2---2---|
E|---------------|

Coro 1
Coro 2

Final ...Llevamos naranjas...
           x3
G|-----------|-------------------------------------|
D|-----------|-------------------------------------|
A|333333-----|-3-2-1-0-------3----3----3----3----3-|
E|-------2~--|---------4-3-2-----------------------|


Dudas o comentarios a piri_22@hotmail.com

Fuente original ATAME [www.atame.org]
Colaborador original: Nicolas [piri_22@hotmail.com]

Fuente: tusacordes.com