a b c d e f g h i j k l m n o p q r s t u v w x y z 0-9

Aura

Animal

			
INTRO

E-5-----5-----5--------------------------
B--5-----5-----5--8--6--5-6-5---5-6-5----
G----------------------------------------
D----------------------------------------
A----------------------------------------
E---------------------------------------

FIG1)

E----------------------4
B-0--------0-----------V 
G--2---------2------2//E 
D----------------------C 
A----------------------E
E----------------------S

FIG2)

E-------------------
B-------------------
G-------------------
D-2-3-2--------2-3-2
A-------------------
E-------------------


FIG3)

E---------------------3
B-0-0-0-0-0-0--/5-3-1-V
G--2-2-2-2-2-2--------E
D---------------------C
A---------------------E
E---------------------S

FIG4)
     
E----0-----0------------
B----1-----1------------
G----2-----2----0-0--0-0
D--2-----2------0-0--0-0
A-0-----3-------0-0--2-2
E---------------3-3--0-0

INTROcon poco distor


FIG1                      FIG2
SUEÑO DE CRISTAL,PURO Y ESCENCIAL
FIG3
SIENTO SU REFLEJO QUE ANIDA EN MI PECHO DANDO A LUZ
                               FIG4      
SIEMPRE FIEL REGRESO CADA VEZ QUE ME MARCHO

CORO

Am  C  G    Em    Am  
ANGEL DE MI ROMANCE
    C     G        Em               
LLEVA EN SUS MANOS HOY
 Am      C      G         Em   
LAS LLAVES PARA LIBERAR MI AMOR

FIG1
SABOREO SU RECUERDO,QUE ALIMENTA ESTE DESEO,

DEPASIONES,FANTASEO QUE TE TENGO,
FIG2
TAN ALTO COMO EL SOL.

FIG3
BUSCO VERTE EN UNA ESTRELLA CADA NOCHE

MIRANDO ME TITILAN TUS PUPILAS EN EL CIELO

SOBRE MI LLEVO EL AURA DE NUESTRO RESPETO ETERNO,
FIG4
TAN FELIZ,LO PROTEJO.

CORO

Am  C  G    Em    Am  
ANGEL DE MI ROMANCE
    C     G        Em               
LLEVA EN SUS MANOS HOY
 Am      C      G         Em   
LAS LLAVES PARA LIBERAR MI AMOR

EN LA PARTE FINAL SE REPITE EL CORO OTRA VEZ
PERO CAMBIA POCO.

Sacada y transcrita por:
LUIS DANIEL ABREGO SOLIS
EDUARDO HERNANDEZ HERRERA
E-MAIL biointe@df1.telmex.net.mx

Fuente original ATAME [www.atame.org]
Colaborador original: luis daniel abrego solis [biointe@df1.telmex.net.mx ]

Fuente: tusacordes.com