a b c d e f g h i j k l m n o p q r s t u v w x y z 0-9

Tu Eres Su Seguridad

Almafuerte

			
durante el comienzo con guitarra se puede puede acompañar:

G|-----------|
D|-----------|
A|-------2---|
E|-3-2-3--3-2|

al final..

G|-------------------------|
D|-------------------------|
A|-------2----3-------2----|
E|-3-2-3--3-2---3-2-3---3-2|

despues del solo de bateria

G|---------------------------------------------------|
D|--------------------------------------5-4-2-2-2----|
A|-------5---------------------3--5-5-5-----------2-0|
E|-3-2-3---3-2-0-0-0-0-0-0-0-0-----------------------|

G|---------------------------------------------------|
D|--------------------------------------5-4-2-2-2----|
A|-------5---------------------3--5-5-5-----------2-0|
E|-3-2-3---3-2-0-0-0-0-0-0-0-0-----------------------|

ajeno al tiempo se que quisieras seguir pero mil voces te ahogan para q formes la cola del seguro porvenir


G|------------------------------------------------------------------------------------|
D|----------------------------------5-5-4-5-4-2-2-2-2-2-2-----------------------------|
A|---------3-3-3-3-0-3--5-5-5-5-5-5-----------------------3-3-3-0-3--5-5-5-5----------|
E|-0-0-0-0-------------------------------------------------------------------0-0-0-0-0|

por eso te vi escapando en las horas sin solo de las miradas oscuras q aprobaron las torturas del fugado represor

G|------------------------------------------------------------------------------------|
D|----------------------------------5-5-4-5-4-2-2-2-2-2-2-----------------------------|
A|---------3-3-3-3-0-3--5-5-5-5-5-5-----------------------3-3-3-0-3--5-5-5-5----------|
E|-0-0-0-0-------------------------------------------------------------------0-0-0-0-0|

son quienes no alcanzan la paz por sus viejos miedos y hoy esperan de vos seguridad

G|--------------------------------------------------------------------
D|--------------------------------------------------------------------
A|---------------2-2-2-2-3-3-3-3-5-5-5-5-7-5-3-2-2-2-2-2-3-3-3-3-5-5-5
E|-0-0-0-0-0-0-0------------------------------------------------------

corte..

G|------------------------------------------------
D|-------------------------5-4-2-2-2--------------
A|---------------3--5-5-5-----------2-0------5----
E|-0-0-0-0-0-0--------------------------3-2-3-3-2-

luego se repiten los mismos riff

en el estribillo..

mata el miedo q guarda el animal 

G|-----------------------------------------------
D|-----------------------------------------------
A|-----------------3-3-3-3-3-5-5-5-5-5-7-7-7-7-7-
E|-0-0-0-0-0-0-0-0-------------------------------

limpia al cuerpo pues dentro del estas

G|-----------------------------------------------
D|-----------------------------------------------
A|-----------------3-3-3-3-3-5-5-5-5-5-7-7-7-7-7-
E|-0-0-0-0-0-0-0-0-------------------------------

si buscan libertad... ya no andes por fuera hombre de miol nombre nace ya nace ya
G|--------------------------------------------------------------------
D|--------------------------------------------------------------------
A|---------------2-2-2-2-3-3-3-3-5-5-5-5-7-5-3-2-2-2-2-2-3-3-3-3-5-5-5
E|-0-0-0-0-0-0-0------------------------------------------------------

acompañamiento del solo

G|------------------------------------------------------------
D|------------------------------------------2-2-2-2-2---------
A|----------------0-0-0-0-5-5-5-5---------------------3-3-3-5-
E|-3-3-3-2-0-0-0-0----------------0-0-0-0-0-------------------

G|---------------------------------------------------
D|---------------------------------------------------
A|-------5---------------3-3-3-3-3-5-5-5-5-7-7-7-7-7-
E|-3-2-3---3-2-0-0-0-0-0-----------------------------

G|---------------------------------------
D|---------------------------------------
A|-----------3-3-3-3-3-5-5-5-5-7-7-7-7-7-
E|-0-0-0-0-0-----------------------------

G|----------------------------------------
D|----------------------------------------
A|------------3-3-3-3-3-5-5-5-5-7-7-7-7-7-
E|--0-0-0-0-0-----------------------------


G|-------------------------------------------
D|-------------------------------------------
A|-3-3-3-3-5-5-5-5-5--------------3-3-3-5-5--
E|-------------------3-3-3-2-0-0-0-----------

se vuelven a repetir los riffs

el final.

G|--------------------------------
D|--------------------------------
A|-------------5-------5----------
E|-0-0-2-2-3-3---3-2-3---3-2-0----

Fuente original ATAME [www.atame.org]
Colaborador original: omar [omi2240@hotmail.com]

Fuente: tusacordes.com