a b c d e f g h i j k l m n o p q r s t u v w x y z 0-9

El Amasijo De Un Gran Sueño

Almafuerte

			
MODIFICACION A LA TRANSCRIPCION DE:
gabriel k-po
ak' les dejo un toqe mejorado el temaso de almafuerte 
para q lo puedan a acer Igual a el tano marciello. 
el solo cuando lo termine de sacar se los mando, 
espero q el tema les sirva para algo, aguante almafuerte carajo,,,!!!
martes 8 de septiembre '09 15:51 hs...

Intro:  Riff x4

Riff:
    e|--------------------|----------------------|
    b|--------------------|----------------------|
    G|--------------------|----------------------|
    D|--4-/9-7------------|--4-4-/9-7------------|
    A|--2-/7-5------------|--2-2-/7-5--7-7--5-5--|
    E|----------6-5rp3r0--|------------5-5--3-3--|


=BASE=
     |==E5===========A5====|==E5=============A5=====|         
    e|---------------------|------------------------|
    b|---------------------|------------------------|
    G|---------------5/7b--|-----------------4-5/7b-|
    D|---------------------|------------------------|
    A|--2-2-2-2------------|--2-2-2-2-2--2-2--------|
    E|--0-0-0-0--0-0-------|--0-0-0-0-0--0-0--------|
      E5            A5  E5             A5    
       Fue sin un porque,  mi gran sueño amasijado
      E5            A5  E5           A5
       mucho lo llore,    por inesperado.

      E5                 A5    E5                   A5
       Si existe un motivo, a mi no me lo comunicaron
      E5                  A5 E5                
       los que ayer conmigo   compartieron tanto

      |======C#5=====|======A5======| Riff
     e|--------------|--------------|--------------------|----------------------|
     b|--------------|--------------|--------------------|----------------------|
     G|--5--5-5-5-5--|--------------|--------------------|----------------------|
     D|--5--5-5-5-5--|--7--7-7-7-7--|--4-/9-7------------|--4-4-/9-7------------|
     A|--4--4-4-4-4--|--7--7-7-7-7--|--2-/7-5------------|--2-2-/7-5--7-7--5-5--|
     E|--------------|--5--5-5-5-5--|----------6-5rp3r0--|------------5-5--3-3--|
      C#5                  A5                            Riff
         Pretendieron apartarme y al saberlo, me hice a un lado.

       E5              A5 E5                        A5
         Canto mi razon     para que quien quiera guarde
       E5                 A5 E5                        
         puez voy otra vez     nuevamente como antes.

      |=B5================|=A5============| 
     e|-------------------|---------------|-----------------|
     b|-------------------|---------------|-----------------|
     G|-4--4-4-4-4--------|---------------|-----------------|
     D|-4--4-4-4-4--------|-7--7-7-7-7----|-----------------|
     A|-2--2-2-2-2--------|-7--7-7-7-7----|-----------------|
     E|-------------------|-5--5-5-5-5----|-0-1-1-2-3-4-5---|
       B5                     A5
         Muchos amigos se angustiaron al saber,
       B5                     A5
         que el sueño mio se quedaba en el ayer.
       B5                     A5
         Mientras reia el comerciante informador,

      |==C#5=============|=A5======| riff
     e|------------------|---------|--------------------|----------------------|
     b|------------------|---------|--------------------|----------------------|
     G|--6--6------------|-2-2-2---|--------------------|----------------------|
     D|--6--6------------|-2-2-2---|--4-/9-7------------|--4-4-/9-7------------|
     A|--4--4--4-6-7-6-4-|-0-0-0---|--2-/7-5------------|--2-2-/7-5--7-7--5-5--|
     E|------------------|---------|----------6-5rp3r0--|------------5-5--3-3--|
       C#5                        A5
         que desprestigia siempre lo que el criollo siente rumoriando, deshonrando.

      |=B5================|=A5============| 
     e|-------------------|---------------|-----------------|
     b|-------------------|---------------|-----------------|
     G|-4--4-4-4-4--------|---------------|-----------------|
     D|-4--4-4-4-4--------|-7--7-7-7-7----|-----------------|
     A|-2--2-2-2-2--------|-7--7-7-7-7----|-----------------|
     E|-------------------|-5--5-5-5-5----|-0-1-1-2-3-4-5---|
       B5                    A5 
         Sin detenerme recordando el ayer
       B5                         A5     
         lo que hubo sido, y lo que no pudo ser
       B5                         A5
         sigo intentando junto al pesado metal

      |==C#5=============|=A5======| riff
     e|------------------|---------|--------------------|----------------------|
     b|------------------|---------|--------------------|----------------------|
     G|--6--6------------|-2-2-2---|--------------------|----------------------|
     D|--6--6------------|-2-2-2---|--4-/9-7------------|--4-4-/9-7------------|
     A|--4--4--4-6-7-6-4-|-0-0-0---|--2-/7-5------------|--2-2-/7-5--7-7--5-5--|
     E|------------------|---------|----------6-5rp3r0--|------------5-5--3-3--|
       C#5                         A5                         RIFF
          Llegar a quien lo sinte, mandando de frente mis verdades.

=Solo=proximamentelo estoy sacando pero todabia no lo saqe completo

      |=B5================|=A5============| 
     e|-------------------|---------------|-----------------|
     b|-------------------|---------------|-----------------|
     G|-4--4-4-4-4--------|---------------|-----------------|
     D|-4--4-4-4-4--------|-7--7-7-7-7----|-----------------|
     A|-2--2-2-2-2--------|-7--7-7-7-7----|-----------------|
     E|-------------------|-5--5-5-5-5----|-0-1-1-2-3-4-5---|
       B5                    A5 
         Sin detenerme recordando el ayer
       B5                         A5     
         lo que hubo sido, y lo que no pudo ser
       B5                         A5
         sigo intentando junto al pesado metal

      |==C#5=============|=A5======| riff
     e|------------------|---------|--------------------|----------------------|
     b|------------------|---------|--------------------|----------------------|
     G|--6--6------------|-2-2-2---|--------------------|----------------------|
     D|--6--6------------|-2-2-2---|--4-/9-7------------|--4-4-/9-7------------|
     A|--4--4--4-6-7-6-4-|-0-0-0---|--2-/7-5------------|--2-2-/7-5--7-7--5-5--|
     E|------------------|---------|----------6-5rp3r0--|------------5-5--3-3--|
       C#5                         A5                         RIFF
          Llegar a quien lo sinte, mandando de frente mis verdades.

     |==E5===========A5====|==E5=============A5=====|         
    e|---------------------|------------------------|
    b|---------------------|------------------------|
    G|---------------5/7b--|-----------------4-5/7b-|
    D|---------------------|------------------------|
    A|--2-2-2-2------------|--2-2-2-2-2--2-2--------|
    E|--0-0-0-0--0-0-------|--0-0-0-0-0--0-0--------|

      E5            A5  E5             A5    
       Fue sin un porque,  mi gran sueño amasijado
      E5            A5  E5           A5
       mucho lo llore,    por inesperado.

      |======C#5=====|======A5======| Riff
     e|--------------|--------------|--------------------|----------------------|
     b|--------------|--------------|--------------------|----------------------|
     G|--5--5-5-5-5--|--------------|--------------------|----------------------|
     D|--5--5-5-5-5--|--7--7-7-7-7--|--4-/9-7------------|--4-4-/9-7------------|
     A|--4--4-4-4-4--|--7--7-7-7-7--|--2-/7-5------------|--2-2-/7-5--7-7--5-5--|
     E|--------------|--5--5-5-5-5--|----------6-5rp3r0--|------------5-5--3-3--|
      C#5                  A5                            Riff
         Pretendieron apartarme y al saberlo, me hice a un lado.

      |=B5================|=A5============| 
     e|-------------------|---------------|-----------------|
     b|-------------------|---------------|-----------------|
     G|-4--4-4-4-4--------|---------------|-----------------|
     D|-4--4-4-4-4--------|-7--7-7-7-7----|-----------------|
     A|-2--2-2-2-2--------|-7--7-7-7-7----|-----------------|
     E|-------------------|-5--5-5-5-5----|-0-1-1-2-3-4-5---|
      B5                     A5
        Muchos amigos se angustiaron al saber,
      B5                     A5
        que el sueño mio se quedaba en el ayer.
      B5                     A5
        Mientras reia el comerciante informador,


      |==C#5=============|=A5======| riff
     e|------------------|---------|--------------------|----------------------|
     b|------------------|---------|--------------------|----------------------|
     G|--6--6------------|-2-2-2---|--------------------|----------------------|
     D|--6--6------------|-2-2-2---|--4-/9-7------------|--4-4-/9-7------------|
     A|--4--4--4-6-7-6-4-|-0-0-0---|--2-/7-5------------|--2-2-/7-5--7-7--5-5--|
     E|------------------|---------|----------6-5rp3r0--|------------5-5--3-3--|
       C#5                        A5
         que desprestigia siempre lo que el criollo siente rumoriando, deshonrando.
=final=
        riff. 

les mando un saludo a todos los chicos de lafe
un abraso enorme a mi hermano walter
y un besote enorme a mi novia bren qe la amo con toda mi alma..
aguante el tano marciello el mejor violero del mundo...
guiardino al lado del tano es una cagada,, jaja

Fuente: Lacuerda