a b c d e f g h i j k l m n o p q r s t u v w x y z 0-9

Al Taller Del Maestro

Alex Campos

			
BENDICIONES AQUI LES VA EL BAJO 



          MIS LAGRIMAS CAERAN                             MIS LAGRIMAS CAERAN

E  /---3---------------------------------3-------3-3-----------------------------3------3-3-------
A  /--------2----5-----0--3---0-0---0-3------5---------2-5---0---3---0-0---0-3------5-------2--5--
D  /----------------------------------------------------------------------------------------------
G  /----------------------------------------------------------------------------------------------

CORO
    	  AL TALLER DEL MAESTRO VENGO PUES EL ME CURARA, ME TOMARA ENTRE SUS BRAZOS

E  /-----------------------------3--------3---3--------------------3----------------------3------
A /---0--3-- 0--0----0----2---5-----5------------2-----5----3------------3---3---------3------5--
D /-------------------------------------------------------------------------------5--------------
G /----------------------------------------------------------------------------------------------

CORO

	Y CADA HERIDA SANARA LAS HERRAMIENTAS DEL MAESTRO MI ALMA EL REMENDERA

E  /-------------3-3------------------------------------------3--------3--3-------------------
A  /-------------------2--5-----0----3---0---0---0---2---5--------5-----------2---5----3------
D  /------------------------------------------------------------------------------------------
G  /------------------------------------------------------------------------------------------


	MARTILLO EN MANO Y MUCHO FUEGO AUNQUE ME DUELA AYUDARA         A  CONOCERLO Y A

E  /--------3----------------------3----------3--3---------------1s-----5----8-----------
A  /------------3----3--------3---------5-----------2--3----5--------------------5---7---
D  /----------------------5--------------------------------------------------------------
G  /-------------------------------------------------------------------------------------


	ENTENDERLO A SABER QUE NADA MERESCO AMAR ES MAS QUE UN PRETEXTO ES UNA ENTREGA

E  /----------5---8----------------------1------------------------------------------------
A  /------------------7----------------------3----------------------3-----------------5---
D  /------------------------7h---9---5-----------3h---5---3---2--------------------5------
G  /-------------------------------------------------------------------5s---7---5---------


	SUBNEGAR MAS QUE AQUEL SENTIMIENTO ES LA DECISION DE AMAR  AH  AH

E  /---------3----------------------------------------------5---8--------------------------
A  /-----------------------------------5---8------------------------7----------------------
D  /-----------5s---8---7---5---3---2----------7-----------------------7h---9----5---3-----
G  /-----------------------------------------------7h---9----------------------------------






		            AL TALLER DEL MAESTRO VENGO
E  /------------------------------------------------------------
A  /---------------7---10--------------------5------------------
D  /------------------------7h---10---9---7---------------------
G  /------------------------------------------------------------

EN LA PARTE DE ?ALLI AHI EL SOL SE PONDRA??.?   VA ASI SOLO AGARREN EL TIEMPO
QUE ENTRAN LAS NOTAS PERO ESTA PARTE ES FACIL

E  /------------------------------------0---------------0----------------
A  /-----0---3--2---0--3---2---0---------------------------------2-------
D  /----------------------------------------2---0---------2----0---------
G  /---------------------------------------------------------------------

                 CARPINTERO MI ALMA AQUI ESTA?

E  /-------------------------------------0--------------0---------------
A  /-----0---3--2---0--3---2---0-------------------------------------2--
D  /-------------------------------------------2---0--------2----0------
G  /--------------------------------------------------------------------

NO IMPORTA EL TIEMPO QUE ALLI E DE ESTAR?

E  /-------------------------------------0--------------0---------------
A  /-----0---3--2---0--3---2---0-------------------------------------2--
D  /-------------------------------------------2---0--------2----0------
G  /--------------------------------------------------------------------



AQUI ENTRA AL RITMO DEL PRINCIPIO QUE VA ASI

E  /-------------------------------------3-------------3-----------------
A  /---------3------------3-------------------------------2--------------
D  /-------------3---2---------3---2--------2---0------------0-----------
G  /---------------------------------------------------------------------


ESTE ES TODO EL CANTO BASICAMENTE ES COMPLICADO Y ESTOY SEGURO QUE NO LO SAQUE
PERFECTO PERO LES VA A AYUDAR MUCHO EN AGARRAR UNA MEJOR IDEA BENDICIONES.

Fuente: Tusacordes