a b c d e f g h i j k l m n o p q r s t u v w x y z 0-9

Amarte Asi

Alejandro Lerner

			
Versión de piano para tocarla en guitarra.

	ACORDES A USAR

	   Do Lam/Fa# Mim Mi°7  Rem  Fa  Sol Mi4 Mi7 Lam LamM7 Rem7 Sol#
	|-------------------3----1---1----3-----------------------1-----4---|
	|--1-----1----------3----3---1----3-----------1-----1-----1-----4---|
	|--0-----2----------3----2---2--------2---1---2-----1-----2-----5---|
	|--2-----2-----2----2--------3--------2-------2-----2-----------6---|
	|--3-----------2-------------3----2---2---2---------------------6---|
	|----------------------------1----3-----------------------------4---|

Intro
         Do            Do          Do        Rem7         Sol
|---------------0-------------0----------1--0--------------------|
|----1----1---3----1----1---3-----1--1---------3--1--------------|
|-----------0-------------0-------0--0---------------0---0--0----|
|------2-------------2-----------------------------------0--0----|
|----3-------------3--------------3--3---------------------------|
|--------------------------------------------------------3--3----|

Verso 1

    Sol        Do             Lam               Mim
|----------------------------------------------------------------------|
|----------1-1-1--1---1---1----1-----1---1-----------------------------|
|-0-0-0-0--0-0-0--0---2---2----2-----2---2---0---0---0--0---0--2--3----|
|-0-0-0-0------------------------------------2---2---2--2---------0----|
|----------3-3-3--3---0---0----0-----0---0------------------------0----|
|-3-3-3-3------------------------------------0---0---0--0--------------|
       Amarte así,      es vivir un sueño eterno junto a ti
  
          Mi°7               Rem          Fa          Sol           Do 
|--------------------------1-----1---------------------------------------------|
|-3-3----3----3------3-----3-----3------1-----1----2---2---2--2---1--1--1--1---|
|-3-3----3----3------3------------------2-----2----0---0---0--0---0--0--0--0---|
|--------------------------0-----0------3-----3----0---0---0--0----------------|
|-0-0----0----0------0--------------------------------------------3--3--3--3---|
|---------------------------------------1-----1----3---3---3--3----------------|
       es confiarle al universo este milagro de sentir,  amarte así

    Sol          Do             Do           Mim
|-------------------------0----------------0----------------------------|
|-----------1----1-----3-----1-----1-----3------------------------------|
|-0-0--0----0-------0--------0--------0--------0----0----0----0--2--3---|
|-0-0--0-------2----------------2--------------2----2----2----------0---|
|-----------3----------------3-------------------2----2----2--------0---|
|-3-3--3---------------------------------------0----0----0--------------|
     Amarte así,             entregándome al destino que elegí    

   Mi°7                        Rem           Fa             Sol           Do 
|--------------------------1------1------------------------------------------------|
|-3-----3-----3------3-----3------3---------------------2-------2--------1---1-----|
|-3-----3-----3------3--------------------2------2------0---0---0---0----0---0-----|
|----2-----2-----2------2-----0------0----3------3------0-------0----------2---2---|
|-0-----0-----0------0-----0------0----------3------3-----2---2---2---2--3---3-----|
|-----------------------------------------1------1------3-------3------------------|
      y que estes en mi camino y yo en el tuyo y compartir, amarte   así


Coro

    Mi4    Mi7      Lam    LamM7 Lam7     Lam            Rem7                    Do
|---------------------------------------------------1-----1-----1-----1--------------------|
|-----------------1---1---1---1---1---1---1---1-----1-----1-----1-----1---------1------1---|
|-3---3---1---1---2---2---1---1---0---0---2---2--------2-----2-----2-----2------0------0---|
|-3---3---0---0-----2---2---2---2---2---2---2---2---0-----0-----0-----0------------2-------|
|---3---3---2---2-0---0---0---0---0---0---0---0---------------------------------3------3---|
|-0---0---0---0----------------------------------------------------------------------------|
              así,        hasta morir         hasta el fondo de mi alma    Amarte así,

    Mi4    Mi7      Lam    LamM7 Lam7    Lam             Rem7 
|---------------------------------------------------1-----1-----1-----1------|
|-----------------1---1---1---1---1---1---1---1-----1-----1-----1-----1------|
|-3---3---1---1---2---2---1---1---0---0---2---2--------2-----2-----2-----2---|
|-3---3---0---0-----2---2---2---2---2---2---2---2---0-----0-----0-----0------|
|---3---3---2---2-0---0---0---0---0---0---0---0------------------------------|
|-0---0---0---0--------------------------------------------------------------|
              así,        hasta morir         ni la eternidad me alcanza
              Fa               Sol           Do             Do
|---------------------------------------------------0--------------0--1--0------------|
|------------------------2--------------1-----1---3----1-----1---3----------3--1------|
|--------2------2--------0------0-------0-------0------0-------0------------------0---|
|--------3---------------0-----------------2--------------2---------------------------|
|------------3-----3---------2-----2----3--------------3------------------------------|
|--------1---------------3------------------------------------------------------------|
  para agradecer que hoy puedo amarte así      hooo..


Verso 2
                 Do                Do             Mim
|-------------------------0----------------0----------------------------|
|-----------1----1-----1-----1-----1-----3------------------------------|
|-----------0-------0--------0--------0--------0----0----0----0--2--3---|
|--------------2----------------2--------------2----2----2----------0---|
|-----------3----------------3-------------------2----2----2--------0---|
|----------------------------------------------0----0----0--------------|
      Amarte así,       es sentir que el infinito late en mí

          Mi°7                Rem           Fa             Sol           Do 
|--------------------------1------1------------------------------------------------|
|-3-----3-----3------3-----3------3---------------------2-------2--------1---1-----|
|-3-----3-----3------3--------------------2------2------0---0---0---0----0---0-----|
|----2-----2-----2------2-----0------0----3------3------0-------0----------2---2---|
|-0-----0-----0------0-----0------0----------3------3-----2---2---2---2--3---3-----|
|-----------------------------------------1------1------3-------3------------------|
        y es testigo de este    inmenso amor que siento para tí, amarte así
 
Coro

    Mi4    Mi7      Lam    LamM7 Lam7     Lam             Rem7                    Do
|---------------------------------------------------1--------1--1--------1-------------------|
|-----------------1-----1-1-----1-1-----1-1-----1---1-----1-----1-----1-----------1------1---|
|-3---3---1---1---2---2---1---1---0---0---2---2--------2-----------2--------------0----0-----|
|-3---3---0---0-----2-------2-------2-------2-------0-----------0--------------------2-------|
|---3---3---2---2-0-------0-------0-------0---------------------------------------3----------|
|-0---0---0---0------------------------------------------------------------------------------|
              así,        hasta morir         hasta el fin de la esperanza  Amarte así,

    Mi4    Mi7      Lam    LamM7 Lam7     Lam             Rem7 
|---------------------------------------------------1--------1--1--------1---|
|-----------------1-----1-1-----1-1-----1-1-----1---1-----1-----1-----1------|
|-3---3---1---1---2---2---1---1---0---0---2---2--------2-----------2---------|
|-3---3---0---0-----2-------2-------2-------2-------0-----------0------------|
|---3---3---2---2-0-------0-------0-------0----------------------------------|
|-0---0---0---0--------------------------------------------------------------|
               así,        hasta morir         ni la eternidad me alcanza

              Fa               Sol
|----------------------------------------|
|------------------------2---------------|
|--------2------2--------0------0--------|
|--------3---------------0---------------|
|------------3-----3---------2-----2-----|
|--------1---------------3---------------|
  para agradecer que hoy puedo amarte

       Sol#         Sol#      Rem        Sol#        Sol#       Rem    Sol   Do
|---------------------------1---------------------------------1-------------------------0---|
|---------------------------3-----3---------------------------3-----3---3-----1---1---3-----|
|--5--------5--5--------5---2---2----5--------5--5--------5---2---2-----0-----0-----0-------|
|--6-----6-----6-----6--------0------6-----6-----6-----6--------0-------0-------2-----------|
|--6--6--------6--6------------------6--6--------6--6-------------------2-----3-------------|
|--4-----------4---------------------4-----------4----------------------3-------------------|
       hasta fundirme en este amor,    hasta llenarte el corazón,      amarte así

         Do           Rem7        Do        Rem7         Sol
|---------------0--1--0----------------------------0-------------0--1--0------------------|
|----1----1---3----1-----3--1-----------1----1---3----1----1---3----1-----3--1---------1--|
|-----------0------------------0---------------0-------------0------------------0------0--|
|------2-----------0----------------------2-------------2-----------0------------------2--|
|----3----------------------------------3-------------3--------------------------------3--|
|-----------------------------------------------------------------------------------------|
        Oh          Oh      Amarte así                                       amarte así. 




CARLOS PIÑEROS
BUCARAMANGA, COLOMBIA

Aerosmith Lives
Guns N Roses Rules
Nirvana Forever

Fuente original ATAME [www.atame.org]
Colaborador original: Carlos Piñeros [carlos_pineros@budweiser.com]

Fuente: tusacordes.com