a b c d e f g h i j k l m n o p q r s t u v w x y z 0-9

Sera Porque Te Amo

Alberto Plaza

D
A
G
Bm
F#
			
Introducción: D

A]

D		A	 G 
Ahora que estamos solos
		D	Bm-F#	
y que nadie nos ve
	    Bm	
o ya se han ido todos
		Mim*
dame un beso y
	     A-Lasus4-A
ven y abrázame

B]

D

	     A   G 
Todos estos años
			   D       Bm-F#
has sido vida mía, lo más grandes
		Bm			  Mim*
la compañera fuerte, frágil, la consiente
   A		D
mis mayores alegrías

C]
		A-G-D
Será porque te amo
		A-G-D
te necesito tanto
		A-G-D
Por eso es que te canto
		A-G-D
y amada mía te llamo

Solo:

 D		  A		    G 
|-2-3-5-3-2h3p2-----|-----------------|
|-3-------------3/5-|-2-3-5-3-2h3p2---|
|-2-----------------|-2-------------4-|
|-------------------|-----------------|
|-------------------|-----------------|
|-------------------|-----------------|

 G             D

|-3-2-2-----------|---------|
|-------5-0h2p0---|---------|
|---------------2-|-0h2p0---|
|-----------------|-------4-|
|-----------------|---------|
|-----------------|---------|


A]Recuerdo bien el día
en que nos prometimos un amor eterno
cuando nos salvamos del infierno
de estar tristes y solos toda la vida

B]Por eso que esta noche 
hoy necesito que me abraces fuerte
y me prometas como aquel septiembre
que estamos juntos para siempre


C]Será por que te amo
te necesito tanto
Por eso es que te canto
y amada mía te llamo

C]Será por que te amo
te necesito tanto
Por eso es que te canto
y amada mía te llamo

C]Será por que te amo, que te amo
te necesito tanto, tanto, tanto
Es por eso que te canto
y amada mía te llamo

C]Será por que te amo, porque que te amo
Será por que te amo
y amada mía te llamo

Fin.

  Esta es una gran canción de Alberto Plaza espero que
este todo bien, cuando saque la segunda guitarra la envio adios.

Fuente original ATAME [www.atame.org]
Colaborador original: Ecson Savoy [ecson@esfera.cl]

Fuente: tusacordes.com