a b c d e f g h i j k l m n o p q r s t u v w x y z 0-9

Sentencia

Alberto Plaza

			
p=pausa corta
H=hamer o ligado

fig_1

       p     x2	     p	   x2      p     x2	 p     x2      p    x2
|-------0-----|-------0-----|-------0-----|-------0-----|-------0----|
|---------1---|-----0---0---|-----0---0---|-----0---0---|-----0---0--|
|-----2-----2-|---4-------4-|---4-------4-|---2-------2-|---2-------2|
|---2---------|-6-----------|-5-----------|-4-----------|-3----------|
|-0-----------|-------------|-------------|-------------|------------|
|-------------|-------------1-------------|-------------|------------|

                                       x2                  p
|-------------------------|-------p-1---|-----------0---------0-|
|-------0-1---3H1---0H1---|-----3-----3-|---------0---0-----0---|
|---p-0-----0-----0-----0-|---2---------|-------1-------2-1-----|
|-2-----------------------|-0-----------|-----2-----------------|
|-------------------------|-------------|---2-------------------|
|-------------------------|-------------|-0---------------------|
                                        esta parte un poco mas rapida.


fig_1
Estaré en tu boca por donde vayas
y seré yo mismo lo tu beses
habrá primavera todos los meses
y serán de nubes nuestra murallas.

fig_1
Seré el compańreo que no desmaya
cuando venga el tiempo de los reveses
nos levantaremos una y mil veces
ganaremos una y otra batalla.


 LA                          MI
Mírame a los ojos, yo te sentencio
 Fa#                      Do#        
a volar conmigo por el silencio,
 RE                       LA        Sim-MI
a escapar del yugo de la memoria.   oh...


 LA                        MI
Mirame a los ojos no digas nada,
 Fa#                       Do# 
la desesperanza está derrotada,
 RE
este es el amor,
             LA           Sim MI La
Lo demás, historia, historias...


Mírame a los ojos, yo te sentencio...
Mirame a los ojos no digas nada...

La parte de orquesta tiene de acompańamiento la misma fig_1.

Fuente original ATAME [www.atame.org]
Colaborador original: Ecson Savoy [ejsavoy@yahoo.com]

Fuente: tusacordes.com