a b c d e f g h i j k l m n o p q r s t u v w x y z 0-9

Aventurera

Alberto Plaza

			
Esta es mi primer tablatura, si encuentran errores háganmelos saber.


Intro:

    Dm           C        G/B      G/A#  Dm      C       G/B F6  G/B
E|-0-----|-1-----0-----0-|-3-----3-3---|-0-1-----0-----0-|-3---1-3--|
B|---3---|-----3-----1---|-----3-----3-|-------2-----1---|---3------|
G|-----2-|---2-----0-----|---0---------|-----3-----0-----|-----2----|
D|-------|-0-------------|-------------|---0-------------|---3------|
A|-------|-------3-------|-2-------1---|---------3-------|-2-----2--|
E|-------|---------------|-------------|-----------------|----------|

Verso A)    

E|-1------------------1---0----------1--3-----3----0--
B|-------------2-----------------1----------3----3----
G|----------3------3----------0----0----------0-------
D|-0--------------------------------------------------
A|------------------------3-------------2--------1----
E|----------------------------------------------------
   Dm                     C             G/B    G/A#
  Acostumbrado a decir te quiero con una sonrisa

E|-1--------------------1---0---------1---3-----3------3------
B|-------------2----------------1------------3-----2-------2--
G|----------3------3----------0---0---------0--0-----0---0----
D|-0----------------------------------------------------------
A|--------------------------3-------------2--------1----------
E|------------------------------------------------------------
  Dm                        C            G/B      G/A#-
 acostumbrado a regalarte con los ojos una flor

E|------1------------------------------3-------
B|----------------1------------3---------------
G|------------------------------------------3--
D|---3------3-----------3------------5----5----
A|---------------------------------------------
E|-1---------------------------3---------------
   F                          Gm
  ya no te he vuelto a decir te quiero

E|-------------1--------------0-------
B|--------3---------3----2------------
G|---------------3---------0----------
D|-----------3--------3---------------
A|-----------------------0------------
E|--------1---------------------------
          A#              A7
  nunca más te regalé una flor

E|--------1-------------------0-----------1----------------
B|--------3-------------------1-----------1----------------
G|--------3-------------------0-----------2----------------
D|--------3-------------------2-----------3-----0--3--5-5--
A|--------1-------------------3-----------3----------------
E|--------1-------------------0-----------1----------------
          A#                  C            F
  mala costumbre no decir te quiero a viva voz.

Verso B)

E|-1------------------1---0----------1--3-------3----0--
B|-------------2-----------------1----------3------3----
G|----------3------3----------0----0------0---0---------
D|-0----------------------------------------------------
A|------------------------3---------------------1-------
E|------------------------------------------------------
   Dm                     C             G/B    G/A#
  Y aquellas cosas que hace algunos años nos hacían reír

E|-1--------------------1---0---------1----3----3---3--------
B|-------------2----------------1------------3--------2-2-2--
G|----------3------3----------0---0------------0-------------
D|-0---------------------------------------------------------
A|--------------------------3-----------------------------1--
E|-----------------------------------------------------------
   Dm                        C             G/B      G/A#-
  están tomando forma de recuerdo y nos hacen llorar

E|-1-------------1--------------------3------
B|-------1--------------------3--------------
G|-------------------------------3-----------
D|----------------------------------5--------
A|----3-----3---------3------------------5---
E|-1--------------------------3--------------
   F                          Gm
  ya no hemos vuelto a caminar de la mano 

E|---1-------------1---------------------
B|-----------3-------------3-------2-----
G|---------3-----------------------------
D|--------------------3--------2---------
A|-1-------------------------------------
E|---------------------------------------
   A#                          A7
  por la playa hasta que muera el sol

E|------1-----------1--------0-----------1----------1--
B|-----------3-------------------1---------------------
G|--------------3--------------------0---------2-------
D|-----------------------3-------------------3---3-----
A|---------------------------3-------------------------
E|------1--------------------------------1----------1--
        A#                  C            F
  mala costumbre no escribir en la arena tú y yo.

Verso C)

E|-1-------------------1----------0---------0-3-3-0-1---
B|------------------------------------------------------
G|---------2---2-----------2---------0----0-------------
D|------------------------------------------------------
A|------------------------------------------------------
E|------------------------------------------------------    
   Dm                              C           G/B  
  Aventurera, ya se acaba el tiempo para aventurar

E|-1------------------1----0----------0---1--------0---0-0--
B|--------------3-----------------------------3----1---1-1--
G|--------2---------2----2-----0--0----------------0---0-0--
D|------------------------------------------3---3--2---2-2--
A|----------------------------------------1--------3---3-3--
E|-------------------------------------------------0---0-0--        
    Dm                      C            A#       C
  aventurera que no tenga cada cosa en su lugar

E|----------1-----------------1--------------3--------3------3--
B|--------1----------1--------------1---------------3------3----
G|------2---------2---------2-----2--------3------3------3------
D|----3--------3----------3-----3--------5------5---------------
A|--------------------------------------------------------------
E|-1--------------------1--------------3------------------------         
   F                                   Gm
  Aventureros de la madrugada vamos a juntar
 
     C                       Gm      C       F
  amaneceres empinando besos, hasta emborrachar      

E|--------------0-------------------1----
B|-----------1----------1---3----3-------
G|--------2--------------------3---------
D|-----2------------2--------------------
A|--0------------------------------------
E|---------------------------------------         
       Am                   A#
  Nos amaremos tanto que el amor 

E|---------3--------------0----------------
B|---------------------1-------------------
G|----3------3---3---0---------------------
D|--5---5------5---------------------------
A|-----------------------------------------
E|-----------------------------------------         
     Gm             C
  va estar celoso de nosotros

        F                                       Gm
   Aventureros hasta que la luna vaya a naufragar
                C                    Gm         C    F
   hasta que el día nos recuerde todo lo que hay que olvidar
         Am                     A#
   Nos amaremos tanto que el amor 
             Gm            C
   va estar celoso de nosotros
 
B)   Acostumbrado a suponer que tú
     ya me conoces bien
     postergado nuevamente un beso
     solo por creer
     que un sentimiento no puede morirse
     que se conquista una sola vez
     mala costumbre que lo entienda 
     y no lo quiera comprender

C)   Aventurera con una mirada de complicidad
       aventurera puedes darme fuerza para continuar
       Aventureros de la madrugada vamos a estallar
       en un millón de nuevas aventuras en la oscuridad
       Nos amaremos tanto que el amor 
       va estar celoso de nosotros

     Aventureros hasta que la luna vaya a naufragar
       hasta que el día nos recuerde todo lo que hay que olvidar
       Nos amaremos tanto que el amor 
       va estar celoso de nosotros

Fuente original ATAME [www.atame.org]
Colaborador original: José Juan Lara B. [larapuma@yahoo.com]

Fuente: tusacordes.com