a b c d e f g h i j k l m n o p q r s t u v w x y z 0-9

Solo Aqui

Airbag

			
es una correccion de la otra que en los arpegios y
en algunos acordes me equiboque

intro: si
si                              sol#m
solo aqui sentado sin saber que hacer
             do#m
yo se que tu estas con el y no regresaras
    fa#
por mi

arpegio 1:en realidad son los acorde que se ponen y
tocan estas cuerdas
si
e------------8----------------8-------------------//
b--------------8---8------------8---8-------------//
g------7---------7-------7--------7---------------//
d--------10-----------10---10---------------------//
a---10--------------------------------------------//
e-8-----------------------------------------------//
sol#m
e---------4------------4--------------------------//
b-----------4---4--------4---4--------------------//
g-----4-------4----4-------4----------------------//
d-------6--------6---6----------------------------//
a---6---------------------------------------------//
e-4-----------------------------------------------//
do#m
e----------4-------------4------------------------//
b-----6------5---5---------5---5------------------//
g-------6------6-----6-------6--------------------//
d---6--------------6---6--------------------------//
a-4-----------------------------------------------//
e-------------------------------------------------//
fa#
e---------2-------------2-------------------------//
b-----------2---2---------------------------------//
g-----3-------3-----3-----------------------------//
d-------4---------4---3---------------------------//
a---4---------------------------------------------//
e-2-----------------------------------------------//
no tendere palabras que decir tal ves un beso
para darte a ti y el sueño que deje morir

puente:
mi                                 mi  si
y en la mañana espero un corazon cincero que
      la      mi    fa#
solo busca livertad

estribillo:
                   si-sol#m-fa#        mim  sol#m mi
yo solo quiero olvidaaaar lo que sifrido por tiiiiii
           si-sol#m-fa#          mi      fa#
que es difisil olvidarte si no estas aiqui no estas
  si
a qui


nota se repite intro con arpegion pero esta bes mas
distocionada,despues el puente y estribillo,despues
el solo que va a estar listo en unos dias
y despues estribillo por 2

Fuente original ATAME [www.atame.org]
Colaborador original: JULIAN SPECIALE [IBANEZ_JS1@HOTMAIL.COM]

Fuente: tusacordes.com