a b c d e f g h i j k l m n o p q r s t u v w x y z 0-9

Solo Aqui

Airbag

			
HOLA

INTRO:B
1°ERA ESTROFA
  si                   sol#m
solo aqui sentado sin saber que hacer
              DO#m                 fa#
yo se que tu estas con el y no regresaras

por mi

ARPEGIO 1° nota:con distorcion
E----------------------------------------------//
B----------------------------------------------//
G---------4--------4---------------------------//
D-----2-2------2-2---------6------------6------//
A-b---2-2--b---2-2-----4-4---------4-4---------//
E-----------------g#m--4-4----g#m--4-4---------//

E----------------------------------------------//
B----------------------------------------------//
G---------6---------6--------------------------//
D-----4-4-------4-4------------4--------4------//
A-c#m-4-4---c#m-4-4------2-2-------2-2---------//
E---------------------f#-2-2----f#-2-2---------//

no tendre palabras que decir tal ves un beso para
darte a ti y el sueño que deje morir

PUENTE:
mi                mi                         si
 y el la mañana espero un corazon cincero que solo
            mi fa#
busca libertaaaaad

ESTRIBILLO:
                    si fa#
yo solo quiero alvidaaaaar lo que sufrido por
 sol#m mi             si         fa#          mi
tiiiiiiiiii. que es difisil olvidarte si no estas
   fa#          si
a qui no estas aqui

2°DA ESTROFA nota la suginda es igual que la primera
pero solo se toca el arpegio que es distinto y mucho
mas distorcionado

ARPEGIO 2

E----------------------------------------------//
B----------------------------------------------//
G---------4--------4---------------------------//
D---------------------------6---------6--------//
A-2-2-2-2--2-2-2-2-----------------------------//
E-------------------4-4-4-4---4-4-4-4----------//

E----------------------------------------------//
B----------------------------------------------//
G---------6--------6---------------------------//
D----------------------------4---------4-------//
A-4-4-4-4--4-4-4-4-----------------------------//
E--------------------2-2-2-2---2-2-2-2---------//
PUENTE
ESTRIBILLLO X2
SOLO nota: el solo se los devo
PUENTE
ESTIBILLIO  X2

ARPEGIO 3 nota: esto es cuando el canta no estas aqui
cuatro veces
E----------------------------------------------//
B----------------------------------------------//
G----------4------------------4----------------//
D-------------------4-----------------4--------//
A--2-2-2-2------------2-2-2-2------------------//
E-----------2-2-2-2-----------2-2-2-2----------//

E----------------------------------------------//
B----------------------------------------------//
G---------4-------------------4----------------//
D-------------------4-------------------4------//
A-2-2-2-2-------------2-2-2-2------------------//
E-----------2-2-2-2-------------2-2-2-2--------//

nota: termina con un arreglo entre fa# y si

E-----------//
B-----------//
G-----------//
D-----------//
A------B----//
E--F-F------//

nota para entender bien lo de los arpegios hay que
escuchar el tema es facil alguna duda al mail

Fuente original ATAME [www.atame.org]
Colaborador original: JULIAN SPECIALE [IBANEZ_JS1@HOTMAIL.COM]

Fuente: tusacordes.com