a b c d e f g h i j k l m n o p q r s t u v w x y z 0-9

Quiero Estar Contigo

Airbag

			
Esta Cancion se la dedico al Chino ALexis que es mi pana..
para que se la cante a su nueva pelada.. je je--

Afinación Standar E


 Intro y Outtro
G|----------------------------------------------------|
D|----------------------------------------------------|
A|----------------------------------------------------|
E|----0--1--3--4-4-4-4--------------------------------|


Estrofas

      G#                              C#      D#
G|----------------------------------------------------|
D|----------------------------------------------------|
A|------------11-11-10-10-8-8-6-6-4-4-4-4-4-4-6-6-6-6-|
E|----4-4-4-4-----------------------------------------|

PRe coro
      ah ah ah y

            C       C#  G#  C       C#  D#
G|----------------------------------------------------|
D|----------------------------------------------------|
A|----6--4--3-3-3-3-4-4-----3-3-3-3-4-4-6-6-----------|
E|----------------------4-4---------------------------|

Coro
      G#      F       C#      D#
G|----------------------------------------------------|
D|----------------------------------------------------|
A|--------------------4-4-4-4-6-4-3-------------------|
E|----4-4-4-4-1-1-1-1---------------4-----------------|

Buena BAnda Argentina felicitaciones a la tierra de los enanitos
Viva El Ecuador!!!

Fuente original ATAME [www.atame.org]
Colaborador original: Jose Meza [ian_thorpe01@hotmail.com]

Fuente: tusacordes.com