a b c d e f g h i j k l m n o p q r s t u v w x y z 0-9

Quiero Estar Contigo

Airbag

			
Intro:                    Outro:
e|---------------    x 4        Igual que la intro.. pero
B|---------------               cuando termina hace un slide hasta cero
G|---------------
D|---------------
A|------4--6--7--
E|---0--2--4--5--


Solo Guitarra:
e|-------------------------17-17--16-16-14----
B|---17v--15--14--12--15----------------------
G|--------------------------------------------
D|--------------------------------------------
A|--------------------------------------------
E|--------------------------------------------

e|-------------------------17-17--16-16-14----
B|---17v--15--14--12--15----------------------
G|--------------------------------------------
D|--------------------------------------------
A|--------------------------------------------
E|--------------------------------------------

e|--------------------------------------------
B|---15/17-17--14--14--12eW--14---------------
G|-------------------------------14vW---------
D|--------------------------------------------
A|--------------------------------------------
E|--------------------------------------------

e|--------------------------------------------
B|---------------------------17--18e--17--16e-
G|-14--14--13--14--16--16/18------------------
D|--------------------------------------------
A|--------------------------------------------
E|--------------------------------------------



e = estrirarr
v = vibrar osea mover arriba y abajo
W = Wha Wha

Fuente original ATAME [www.atame.org]
Colaborador original: Bruno [brun_nhl@hotmail.com]

Fuente: tusacordes.com