a b c d e f g h i j k l m n o p q r s t u v w x y z 0-9

Quiero Estar Contigo

Airbag

			
Intro:

|---------------|     |---------|
|---------------|     |---------|
|---------------|     |---------|
|-------6-6-6-6-| x 3 |-------6-|
|-------6-6-6-6-|     |-------6-|
|-1-2-3-4-4-4-4-|     |-1-2-3-4-|

        G#5
Estoy cansado que me digan lo que tengo que hacer
        C#5                    D#5
estoy cansado que me vengan a retar
        G#5
Ya no comprendo las razones bien porque
           C#5                 D#5
quiero borrarme de este maldito lugar

D#5  C#5  C5
Ah,  ah,  ah

   C5
y cuanto tiempo mas será
   C#5        G#5
no se yo no lo se
   C5
irme lejos hacia el mar
    C#5                 D#5
yo ya no quiero mas volveeer

un dos tres va

G#5 F5 C#5    D#5            G#5 Fa5 C#5
So-loooooo yo quiero estar contigooooooo
    D#5        G#5  F5    C#5        D#5  G#5  F5
sentarme a tu lado bajo el sol  y juntos caminaaar
 C#5   D#5
ooooh oooh
G#5 F5 C#5    D#5         G#5 Fa5 C#5
solooooooo mirando las estrellaaaaas
   D#5        G#5  F5   C#5         D#5  G#5  F5agudo D#5
tomados de la mano y sentir al aire respirar

       G#5
Estoy cansado que me digan lo que tengo que hacer
        C#5                    D#5
estoy cansado que me vengan a retar
        G#5
Ya no comprendo las razones bien porque
           C#5                 D#5
quiero borrarme de este maldito lugar

D#5  C#5  C5
Ah,  ah,  ah

   C5
y cuanto tiempo mas será
   C#5        G#5
no se yo no lo se
   C5
irme lejos hacia el mar
    C#5                 #5
yo ya no quiero mas volveeer

G#5 F5 C#5    D#5            G#5 Fa5 C#5
So-loooooo yo quiero estar contigooooooo
    D#5        G#5  F5    C#5        D#5  G#5  F5
sentarme a tu lado bajo el sol  y juntos caminaaar
 C#5   D#5
ooooh oooh
G#5 F5 C#5    D#5         G#5 Fa5 C#5
solooooooo mirando las estrellaaaaas
   D#5        G#5  F5   C#5         D#5  G#5  F5agudo D#5
tomados de la mano y sentir al aire respirar

solo:

|--11-19-8----10--16-16-15-15-13-----------------|
|----------11--------------------16--14-13----15-|
|------------------------------------------15----|
|------------------------------------------------|
|------------------------------------------------|
|------------------------------------------------|

|--16-16-15-15-13-------------------------------|
|-----------------16-16/18-16-11-11/13-13-------|
|-----------------------------------------15-13-|
|-----------------------------------------------|
|-----------------------------------------------|
|-----------------------------------------------|

|-----------------------16-20-18-16-18-------|
|--------------------13----------------------|
|--13-13-12-13-13/15-------------------------|
|--------------------------------------------|
|--------------------------------------------|
|--------------------------------------------|

   C5
y cuanto tiempo mas será
   C#5        G#5
no se yo no lo se
   C5
irme lejos hacia el mar
    C#5                 #5
yo ya no quiero mas volveeer

G#5 F5 C#5    D#5            G#5 Fa5 C#5
So-loooooo yo quiero estar contigooooooo
    D#5        G#5  F5    C#5        D#5  G#5  F5
sentarme a tu lado bajo el sol  y juntos caminaaar
 C#5   D#5
ooooh oooh
G#5 F5 C#5    D#5         G#5 Fa5 C#5
solooooooo mirando las estrellaaaaas
   D#5        G#5  F5   C#5         D#5  G#5  F5agudo D#5
tomados de la mano y sentir al aire respirar

outro:

|---------------|     |---------|
|---------------|     |---------|
|---------------|     |---------|
|-------6-6-6-6-| x 3 |-------6-|
|-------6-6-6-6-|     |-------6-|
|-1-2-3-4-4-4-4-|     |-1-2-3-4-|


Este tema se lo dedico a todos mis amigos del Normal 6 especialmente
a los de 3ro 3ra.

Fuente original ATAME [www.atame.org]
Colaborador original: Gabriel [gabrielgil_kpo@hotmail.com]

Fuente: tusacordes.com