a b c d e f g h i j k l m n o p q r s t u v w x y z 0-9

La Partida De La Gitana

Airbag

			
Esta es una correción del requinto antes puesto.




El requinto va de la sig. manera:



e|----14-13-11----13-11-------11----------------------------------------------------
B|-------------14-------14-12----14-12-11-14-12-11----12-11-------11----------------
G|-------------------------------------------------13-------13-11----13-11-10~10/11-
D|----------------------------------------------------------------------------------
A|----------------------------------------------------------------------------------
E|----------------------------------------------------------------------------------


e|----11----------------------------------------------------------------------------
B|-------14-12-11-14-12-11----12-11-------11----------------------------------------
G|-------------------------13-------13-11----13-11-10-13-11-10----11-10-------------
D|-------------------------------------------------------------13-------13-11-11/13-
A|----------------------------------------------------------------------------------
E|----------------------------------------------------------------------------------



e|-----------------------11-14-13-11--------------------------------
B|--------------------14-------------14-12-11-14}16-14--------------
G|--------11v13-13/15----------------------------------13}15-13-11--
D|--11v13-----------------------------------------------------------
A|------------------------------------------------------------------
E|------------------------------------------------------------------




  *IMPORTANTE: ESTA PARTE LLEVA TAPPING Y
   LOS TONOS SON LOS SIGUIENTES:


e|---14-11-7-[X8]----16-13-9-[X4]--16}18--16}18-16--
B|--------------------------------------------------
G|--------------------------------------------------
D|--------------------------------------------------
A|--------------------------------------------------
E|--------------------------------------------------

                                  } = Levantar cuerda



Ese es todo el requinto de esta rola.




Visita la página de mi banda    Spiritual Noise


                         www.spiritualnoise.cjb.net




     ¡¡¡ TE QUIERO MUCHO MINNÓN !!!

Fuente original ATAME [www.atame.org]
Colaborador original: Ignacio Robledo Valderrama [ignacio_15@hotmail.com]

Fuente: tusacordes.com