a b c d e f g h i j k l m n o p q r s t u v w x y z 0-9

La Partida De La Gitana

Airbag

			
Y si te
vas...

G----------------------------------------
D----------------------------------------
A-6---2------------------4-44-44-4-44-44-
E--------2-22-22-2-22-22-----------------

estoy...

G-------------------------------------------------------------
D-----------3-4-----------------------------------------------
A-6-666---6-----2-22-22-2-1-----------4-44-44-----------------
E-------6-------------------4-2-22-22---------2-22-22-2-22-22-

Verso Quiero ser el barco...

G--------------------------------------------------------------
D--------------------------------------------------------------
A-----------1-2-4-44-44-4-44-4-3-2-22-22-2-1-----------4-44-44-
E-2-22-22-2----------------------------------4-2-22-22---------

G--------------------------------------------------------------
D--------------------------------------------------------3-----
A-----------1-2-4-44-44-4-44-4-3-2-22-22-2-1-----1-2-4-6-------
E-2-22-22-2----------------------------------4-2---------------

Y si algun dia... 
Nota: si escuchan bien pueden notar que hay una nota que exede nuestro 
bajo de 4 cuerdas, asi que pongo la original en bajo de 5 y la 
adaptacion al de 4

G-3-33-33-3-4-3--------------------------------------------------
D---------------4-3-1-11-11-1--------------------------0h1-11-11-
A-----------------------------4-2-1-11-11-1----------------------
E-------------------------------------------2-1------------------
B-----------------------------------------------4-44-44----------

G-3-33-33-3-4-3---------------------------------------------------
D---------------4-3-1-11-11-1-------------------1-11-11-0h1-11-11-
A-----------------------------4-2-1-11-11-1-----------------------
E-------------------------------------------2-1-------------------

Como duele...

G--------------------------------------------------------------
D--------------------------------------------------------------
A-4-44-44-2-1-------------1-4-2-22-22-2-22-22h4-44-44-4-4444-4-
E-------------4-2-22-22-2--------------------------------------

Y si te
vas...

G---------------4-4--4-----------------------------------
D-----------3-4------------------------------------------------
A-6-666---6--------2---2----2-1------------1-2-4-44-44-5-55-55-
E-------6-----------------------4-2-2222-2---------------------

estoy...

G---------------4-4--4-----------------------------------
D-----------3-4------------------------------------------------
A-6-66-66-6--------2---2----2-1-----------4-44-44--------------
E-------------------------------4-2-22-22---------2-22-22-2s14-

Verso Desde...

G--------------------------------------------------------------
D--------------------------------------------------------------
A-----------1-2-4-44-44-4-44-4-3-2-22-22-2-1-----------4-44-44-
E-2-22-22-2----------------------------------4-2-22-22---------

Es por eso...

G----------------------------------------------------------------
D----------------------------------------------------------3-----
A-----------1-2-4-44-44-4-44-4-3-2-22-22-4-2-1-----1-2-4-6-------
E-2-22-22-2------------------------------------4-2---------------

Y si algun dia... 
Nota: si escuchan bien pueden notar que hay una nota que exede 
nuestro bajo de 4 cuerdas, asi que pongo la original en bajo de 
5 y la adaptacion al de 4

G-3-33-33-3-4-3--------------------------------------------------
D---------------4-3-1-11-11-1--------------------------0h1-11-11-
A-----------------------------4-2-1-11-11-1----------------------
E-------------------------------------------2-1------------------
B-----------------------------------------------4-44-44----------

G-3-33-33-3-4-3---------------------------------------------------
D---------------4-3-1-11-11-1-------------------1-11-11-0h1-11-11-
A-----------------------------4-2-1-11-11-1-----------------------
E-------------------------------------------2-1-------------------

Como duele...

G--------------------------------------------------------------
D--------------------------------------------------------------
A-4-44-44-2-1-------------1-4-2-22-22-2-22-22h4-44-44-4-4444-4-
E-------------4-2-22-22-2--------------------------------------

Y si te
vas...

G---------------4-4--4-----------------------------------
D-----------3-4------------------------------------------------
A-6-666---6--------2---2----2-1------------1-2-4-44-44-5-55-55-
E-------6-----------------------4-2-2222-2---------------------

estoy...

G---------------4-4--4--------------------------------------
D-----------3-4-------------------------------------------------3-
A-6-66-66-6--------2---2----2-1-----------4-44-44-----------4-6---
E-------------------------------4-2-22-22---------2-22-22-2-------

Solo de guitarra

G-3-33-33-3-4-3---------------------------------------------------
D---------------4-3-1-11-11-1-------------------1-11-11-0h1-11-11-
A-----------------------------4-2-1-11-11-1-----------------------
E-------------------------------------------2-1-------------------

G--------------------------------------------------------------
D--------------------------------------------------------------
A-4-44-44-2-1-------------1-4-2-22-22-2-22-22h4-44-44-4-4444-4-
E-------------4-2-22-22-2--------------------------------------

Y si algun dia... en esta parte también usa Re# grave del bajo de 5, 
                     asi que esta es la adaptacion

G-3---------------------------
D----1-----1------------------
A-------1---------------------
E-----------------------------

Como duele...

G--------------------------------------------------------------
D--------------------------------------------------------------
A-4-44-44-2-1-------------1-4-2-22-22-2-22-22h4-44-44-4-4444-4-
E-------------4-2-22-22-2--------------------------------------

Y si te
vas...

G---------------4-4--4-----------------------------------
D-----------3-4------------------------------------------------
A-6-666---6--------2---2----2-1------------1-2-4-44-44-5-55-55-
E-------6-----------------------4-2-2222-2---------------------

estoy...

G-----------------------------------------------------
D-----------3-4---------------------------------------
A-6-66-66-6-----2-22-22-2-1-----------4-44-44---------
E---------------------------4-2-22-22---------2-22-22-

Y si te

G-----------------
D--3-4------------
A-----------------
E-----------------

vas...

G----------------------------------------------------------
D-----------3-4--------------------------------------------
A-6-66-66-6-----2-22-22-2-1------------1-2-4-44-44-5-55-55-
E---------------------------4-2-2222-2---------------------

estoy...

G------------------------------------------------------------------------------
D-----------3-4----------------------------------------------------------------
A-6-666---6-----2-22-22-2-1------------4-44-44---------4-44-44---------4-44-44-
E-------6-------------------4-2-22-22-2--------2-22-22---------2-22-22---------

Final 

G---------------------
D---1-4---------------
A-2-----2-1-----------
E-----------4-2s14----

Fuente original ATAME [www.atame.org]
Colaborador original: Alejandro Wasil [alewasil@hotmail.com]

Fuente: tusacordes.com