a b c d e f g h i j k l m n o p q r s t u v w x y z 0-9

Dejare La Ciudad

Airbag

C
Am
G
F
			
Intro:
A|----------3--5/6/5/3---------
E|---3h5-3--------------------


   C                  Am
Solo camino en la noche
       C                    G
donde nadie me pueda encontrar
        C                 F
porque sabes que solo pretendo
        C   G              C
que me dejen, me dejen en paz
      C               Am
Juntare todos mis recuerdos
       C               G
y me ire muy lejos de aca
        C              F
Pero antes nena yo te pido
        C   G             C
que me beses solo una vez mas
     F                 G                 C
Dejare la ciudad para no volver a verte mas
          F                    G                C-G-Am
y aunque te extrañare aun tendre tu mirada en mi alma
F              G          C
solo sera un tiempo nada mas

Solo Guitarra:
A|--------3---5/7-7--7-7--5--3--5--3--------3--5/7--7--7--7--5--3--2-
E|--3--5------------------------------3--5---------------------------


A|--2--------2----------5/7--10--7--7--8--7--5--3-----3--5/8-8/12----
E|-----5--3-----3---5------------------------------5-----------------

A|----10--8--7--7/10--8--7--7/8--7---5--3---3/5----------------------
E|-----------------------------------------------5/3-----------------


         C                   Am
No es tu culpa que hoy yo me marche
      C                  G
pero debo volver a mi hogar
          C                 F
Es que antes que llegue la noche
      C       G         F
partire para no volver mas
     F                 G                 C
Dejare la ciudad para no volver a verte mas
          F                    G                C-G-Am
y aunque te extrañare aun tendre tu mirada en mi alma
F              G          C       G
solo sera un tiempo nada mas    ooo

     F                 G                 C
Dejare la ciudad para no volver a verte mas
          F                    G                C-G-Am
y aunque te extrañare aun tendre tu mirada en mi alma
F              G          C
solo sera un tiempo nada mas
F              G          C
solo sera un tiempo nada mas

Fuente original ATAME [www.atame.org]
Colaborador original: Bruno [brun_nhl@hotmail.com]

Fuente: tusacordes.com