a b c d e f g h i j k l m n o p q r s t u v w x y z 0-9

Mil Horas

Abuelos De La Nada

			
Abuelos de la Nada                            
MIL HORAS                                     

Durante la primera parte 
no hay bajo Hace frio
y estoy.....


Tengo un cohete en el pantalon.....
G-----------------------------------------------------
D------------------------3--------3-------------------
A-3-3---1--3-3---1----5----5---5-----6-----6-5-3-1-3--
E-----3--------3---3---------3------------------------


Uh!La otra noche te espere bajo la luvia.......
G----------------------------------
D----------------------------------
A------1--3-3-3-4-5-5-5-6--6-5-3-1-    X2
E-3-33-------3-------5-------------


En el circo vos ya sos una ........ 
G-------------------------------------------------
D-------------------------------------------------
A--3-3-5-5-----1-5--3-3-5-5------1-5--3-3-5-5-3-3-  
E----------3-3---------------3-3------------------

Este ultimo riff hay que engancharlo con la parte de Tengo un
cohete en el pantalon.....

y despues.....

Te espere bajo la lluvia.....

Uh! La otra noche.........

Uh! La otra noche.........

Y esta es toda la canción.
Espero que me entindan
es que esto de los tabs a veces se
me complica.


     __         
   +|oo|+       
   +|oo|+
     ||        
     ||
     ||         
     ||           
     ||
     ||       
  _  ||  _         
  \_||_//      
   | [] |                       
   | || |
  /  []       
  \______/  Aguante el Bajo.
Firma un bajista.

Fuente original ATAME [www.atame.org]
Colaborador original: Martin tummino [tummino@bariloche.com.ar]

Fuente: tusacordes.com