a b c d e f g h i j k l m n o p q r s t u v w x y z 0-9

Lunes Por La Madrugada

Abuelos De La Nada

			
Intro/Verso/Final 
|----------------|----------------|----------------|----------------|
|----------------|----------------|----------------|----------------|
|----------------|----------------|4-4-4-4-4-4-4-4-|4-4-4-4-4-4-4-4-|
|5-5-5-5-5-5-5-5-|5-5-5-5-5-5-5-5-|----------------|----------------|

|----------------|----------------|----------------|----------------|
|----------------|----------------|----------------|----------------|
|5-5-5-5-5-5-5-5-|5-5-5-5-5-5-5-5-|----------------|----------------|
|----------------|----------------|3-3-3-3-3-3-3-3-|0-0-0-0-0-0-0-0-|

Estribillo
|-------------------------------------------------------------------|
|-------------------------------------------------------------------|
|------------4-5------------5-7------------------4------------------|
|7---------7--------------------5------------5-7--------------------|
 
|----------------|----------------|----------------|----------------|
|----------------|----------------|----------------|----------------|
|----------------|----------------|----------------|----------------|
|7-7-7-7-7-7-7-7-|7-7-7-7-7-7-7-7-|3-3-3-3-3-3-3-3-|3-3-3-3-3-3-3-3-|

|----------------|----------------|----------------|----------------|
|----------------|----------------|----------------|----------------|
|----------------|----------------|4-4-4-4-4-4-4-4-|4-4-4-4-4-4-4-4-|
|5-5-5-5-5-5-5-5-|5-5-5-5-5-5-5-5-|----------------|----------------|

|----------------|----------------|----------------|----------------|
|----------------|----------------|----------------|----------------|
|5-5-5-5-5-5-5-5-|5-5-5-5-5-5-5-5-|----------------|----------------|
|----------------|----------------|3-3-3-3-3-3-3-3-|0-0-0-0-0-0-0-0-|

Fuente original ATAME [www.atame.org]
Colaborador original: mariano alvarez [alv_jor@yahoo.com.ar]

Fuente: tusacordes.com