a b c d e f g h i j k l m n o p q r s t u v w x y z 0-9

Costumbres Argentinas

Abuelos De La Nada

			
esta es la tab de costumbres argentinas espero que les guste.


Muerdo el ansuelo, Y vuelvo, a empezar de nuevo, cada vez
e|-0-0-0-0---------------------------0-1-0-0-------1-0--|
B|---------3-3------1-1-1------1-3-3-------------3------|
G|------------------------------------------------------|
D|------------------------------------------------------|
A|------------------------------------------------------|
E|------------------------------------------------------|
Tengo en la mano, una carta, para jugar el jeugo,Cuando quieras
e|-0-0-0-0---------------------------0-1-0-0--------1-0-|
B|---------3-3------1-1-1------1-3-3--------------3-----|
G|------------------------------------------------------|
D|------------------------------------------------------|
A|------------------------------------------------------|
E|------------------------------------------------------|
Caminando caminandote, mil calles que quizas, yo pueda cambiar
e|-1-1-1-1h3-3-3-3-1-0------1-1-1-0---------------0-1-0-|
B|------------------------1---------3---------1-3-------|
G|------------------------------------------------------|
D|------------------------------------------------------|
A|------------------------------------------------------|
E|------------------------------------------------------|
Esperando esperandote, costumbres argentinas de, decir no
e|-1-1-1-1h3-3-3-3-1-0------1-1-1-0---------------0-1-0-|
B|------------------------1---------3---------1-3-------|
G|------------------------------------------------------|
D|------------------------------------------------------|
A|------------------------------------------------------|
E|------------------------------------------------------|
El problema es otra vez la situacion cada vez peor..del corazon
e|-0-0-0-0---------------------------0-1-0-0-------1-0--|
B|---------3-3------1-1-1------1-3-3-------------3------|
G|------------------------------------------------------|
D|------------------------------------------------------|
A|------------------------------------------------------|
E|------------------------------------------------------|
yo camino todo y veo cada vez que quiero y te espero
e|-0-0-0-0---------------------------0-1-0-0-------1-0--|
B|---------3-3------1-1-1------1-3-3-------------3------|
G|------------------------------------------------------|
D|------------------------------------------------------|
A|------------------------------------------------------|
E|------------------------------------------------------|
Caminando caminandote, mil calles que quizas, yo pueda cambiar
e|-1-1-1-1h3-3-3-3-1-0------1-1-1-0---------------0-1-0-|
B|------------------------1---------3---------1-3-------|
G|------------------------------------------------------|
D|------------------------------------------------------|
A|------------------------------------------------------|
E|------------------------------------------------------|
Esperando esperandote, costumbres argentinas de, decir no
e|-1-1-1-1h3-3-3-3-1-0------1-1-1-0---------------0-1-0-|
B|------------------------1---------3---------1-3-------|
G|------------------------------------------------------|
D|------------------------------------------------------|
A|------------------------------------------------------|
E|------------------------------------------------------|


Esta es una de mis primeras tab espero que les guste,
tengo apenas 12 años. ojala suene bien.

Luciano.H

Fuente original ATAME [www.atame.org]
Colaborador original: lUCIANO [Luciano_1993@hotmail.com]

Fuente: tusacordes.com