a b c d e f g h i j k l m n o p q r s t u v w x y z 0-9

Costumbres Argentinas

Abuelos De La Nada

			
Canto:

     Am       Dm       Am       G        C        E
G|--------|--------|--------|--------|--------|--------|
D|--------|--------|--------|--------|--------|--------|
A|--------|-5--5-5-|--------|--------|-3--3-3-|--------|
E|-5--5-5-|--------|-5--5-5-|-3--3-3-|--------|-0--0-0-| x2

Estribillo:

     F        G        C        E
G|--------|--------|--------|--------|
D|--------|--------|--------|--------|
A|--------|--------|-3--3-3-|--------|
E|-1--1-1-|-3--3-3-|--------|-0--0-0-|

     F        G        C        C7
G|--------|--------|--------|--------|
D|--------|--------|--------|--------|
A|--------|--------|-3--3-3-|-3--3-3-|
E|-1--1-1-|-3--3-3-|--------|--------|

     F        G        C        E
G|--------|--------|--------|--------|
D|--------|--------|--------|--------|
A|--------|--------|-3--3-3-|--------|
E|-1--1-1-|-3--3-3-|--------|-0--0-0-|

     F        G
G|--------|--------|
D|--------|--------|
A|--------|--------|
E|-1--1-1-|-3--3-3-|
------------------------------------
Bis Canto - Bis Estribillo
------------------------------------
Entrada a solo de guitarra:

          F
G|--------|--------|
D|--------|--------|
A|--------|--------|
E|-1--1-1-|-1--1-1-|
------------------------------------
Solo de Guitarra sobre LO MISMO QUE EL CANTO
------------------------------------
Bis Estribillo
------------------------------------
Solo de Saxo sobre LO MISMO QUE EL ESTRIBILLO
------------------------------------
Si tenés alguna duda y/o pregunta, escribime a ejpolo@hotmail.com

Fuente original ATAME [www.atame.org]
Colaborador original: Emiliano Polo [ejpolo@hotmail.com]

Fuente: tusacordes.com