a b c d e f g h i j k l m n o p q r s t u v w x y z 0-9

Chala Man

Abuelos De La Nada

			
Es el arreglo del saxo para la guitarra de la intro :



E-------------------------------------------------|
B---6/7-6/7-5-------------------------------------|
G-------------7-6-5--6-7-9-6----------------------|
D----------------------------7-7-7-9-9-7----------|
A-------------------------------------------------|
E-------------------------------------------------|


Despues hace todo esto 2 veces


E---------------------------------------7---------|
B--7-7-7-7/8-8-8-7-----7-7-7-7/8-8-8-10--10-------|
G------------------9-7----------------------------|
D-------------------------------------------------|
A-------------------------------------------------|
E-------------------------------------------------|

Lo termina asi



E-------------------------------------------------|
B---7---------------------------------------------|
G-----9--7-----9b10b9-----------------------------|
D----------9--------------------------------------|
A-------------------------------------------------|
E-------------------------------------------------|

Cualquier duda, sugerencia o ganas de descargarse
escribanme al mail o al icq: 114621770

Fuente original ATAME [www.atame.org]
Colaborador original: Nakio Sospecha [peligro69@msn.com]

Fuente: tusacordes.com