a b c d e f g h i j k l m n o p q r s t u v w x y z 0-9

Zerdo Periodista

A Palo Seko

			
Intro de bajo:
G|----------------------------------|
D|----------------------------------|
A|------3-5------3-5-----3-5--6-5---|
E|--3/5------3/5-----3/5------------|


 Riff Principal:
e|----------------------------------------------|
B|----------------------------------------------|
G|----------------------------------------------|
D|---------5-7----------5-7----------5-7--8-7---|
A|-0-0-0-0-3-5--0-0-0-0-3-5--0-0-0-0-3-5--6-5---|
E|----------------------------------------------|


  Esrtibillo:
e|------------------------------------|
B|------------------------------------|
G|------------------------------------|
D|------------------------------------|
A|---5-5-5-5--7-7-7-7--12-12-12-12----|
E|---3-3-3-3--5-5-5-5--10-10-10-10----|


   Luego hace un cambio cuando canta:
     ahora solo espero ke me entiendas todo, eres un baboso...
e|----------------------------------------|
B|----------------------------------------|
G|----------------------------------------|
D|--5-5-5-5---7-7-7-7---------------------|
A|--3-3-3-3---5-5-5-5--5-5-5-5--7-7-7-7---|
E|---------------------3-3-3-3--5-5-5-5---|



           Eso es tó, pa kualkier cosa estoy en:


        Membri72@hotmail.com

Fuente original ATAME [www.atame.org]
Colaborador original: Oscar [membri72@hotmail.com]

Fuente: tusacordes.com