a b c d e f g h i j k l m n o p q r s t u v w x y z 0-9

Mierda Pa Toas Las Etiketas

A Palo Seko

			
Riff 1:                      1.     2.
e|-----------------------------|------|-------|
B|-----------------------------|------|-------|
G|-----------------------------|------|-------|
D|-----------------------------|-5--5-|-5--7--|
A|---7-7-7--5--7-7-7--5--7-7-7-|-3--3-|-3--5--|
E|---5-5-5--5--5-5-5--5--5-5-5-|------|-------|




  Riff 2: un puñao de veces  Ahora con su democracia unos a otros...
e|-------------------------|-----------------------------------|
B|-------------------------|-----------------------------------|
G|-------------------------|-----------------------------------|
D|-------------------------|------------------------------5-7--|
A|--5-5-5-5---7-7-7-7------|-5-5-5--7-7-7--5-5-5--7-7-7---3-5--|
E|--3-3-3-3---5-5-5-5------|-3-3-3--5-5-5--3-3-3--5-5-5--------|




  Riff 3: a toa ostia   Mierda pa toas las estiketas...
e|--------------------------|
B|--------------------------|
G|--------------------------|
D|---5-5-5-5-5---7-7-7-7-7--|
A|---3-3-3-3-3---5-5-5-5-5--|
E|--------------------------|



  Riff 4:  kien nos acusa de sexistas sin escuchar ni una cancion....
e|-----------------------------------|
B|-----------------------------------|
G|-----------------------------------|
D|-------------------7-7-7-7---5--4--|
A|--7-7-7-7---5--4---5-5-5-5---3--2--|
E|--5-5-5-5---3--2-------------------|



  Riff 5: cuando hace un cambio  A toa ostia
e|----------------------------------------------|
B|----------------------------------------------|
G|----------------------------------------------|
D|----------------------------------------------|
A|---7-7-7-7-7-7----7-7-7-7-7-7----7-7-7-7-7-7--|
E|---5-5-5-5-5-5----5-5-5-5-5-5----5-5-5-5-5-5--|



   Riff 6: el cambio ke hace despues del anterior
e|----------------------------|
B|----------------------------|
G|----------------------------|
D|----------------------------|
A|---7---7-5---5-4--4-4--5-7--|
E|---5---5-3---3-2--2-2--3-5--|





               Ya ta to, el orden de los riff no lo pongo xq
               se repiten casi tos varias veces, solo teneis ke
               oirlos y ya esta. Pa lo ke sea estoy en:



                     Membri72@hotmail.com

Fuente original ATAME [www.atame.org]
Colaborador original: Oscar [membri72@hotmail.com]

Fuente: tusacordes.com