a b c d e f g h i j k l m n o p q r s t u v w x y z 0-9

Kumpleaños Feliz

A Palo Seko

			
Riff 1:
e|-------------------------------|
B|-------------------------------|
G|-------------------------------|
D|---------5-5-5-----------------|
A|--7-7-7--3-3-3--3-3-3---5-5-5--|
E|--5-5-5---------1-1-1---3-3-3--|



   Riff 2:
e|---------------------------------------|
B|---------------------------------------|
G|---------------------------------------|
D|---------5-5-5--7-7-7--10-10-10-10-12--|
A|--7-7-7--3-3-3--5-5-5--8--8--8--8--10--|
E|--5-5-5--------------------------------|



   Riff 3:  Mierda, mierda, mierda, mierda, mierda
e|---------------------------|
B|---------------------------|
G|---------------------------|
D|--5-5-5-5---5-5-5-5--------|
A|--3-3-3-3---3-3-3-3--5--6--|
E|---------------------3--4--|




            Na mas, farta un solillo ke hay por ahi.
            Pa lo ke haga farta:


                  Membri72@hotmail.com

Fuente original ATAME [www.atame.org]
Colaborador original: Oscar [membri72@hotmail.com]

Fuente: tusacordes.com