a b c d e f g h i j k l m n o p q r s t u v w x y z 0-9

Gracias A La Sociedad

A Palo Seko

			
Riff 1:
e|-----------------------------|-------------|
B|-----------------------------|-------------|
G|-----------------------------|-------------|
D|-----------------------------|--x-5---x-4--|
A|--2---2-2---2-2-2---2-2-2-2--|--x-3---x-2--|
E|--0---0-0---0-0-0---0-0-0-0--|-------------|




  Luego mete un pekeño punteillo tal ke asin:
e|----------------------------|
B|----------------------------|
G|----------------------------|
D|----------------------------|
A|--2/7~~----2/7~~----2/7~~---|
E|----------------------------|




  Riff 2:   Toda la presion esclavitud consentida...
e|------------------------|
B|------------------------|
G|------------------------|
D|--------------5-----4---|
A|--2-----5-----3-----2---|
E|--0-----3---------------|




   Riff 3:  Toda nuestra rabia transformada en violencia...
e|-------------------------------------------------------|
B|-------------------------------------------------------|
G|-------------------------------------------------------|
D|-------------2-2-2-2-2-------------5-5-5-5--7-7-7-7-7--|
A|--2-2-2-2-2--0-0-0-0-0--5-5-5-5-5--3-3-3-3--5-5-5-5-5--|
E|--0-0-0-0-0-------------3-3-3-3-3----------------------|





              Eso es to, es mu sencilla. Pa kualkier duda toy en:



                     Membri72@hotmail.com

Fuente original ATAME [www.atame.org]
Colaborador original: Oscar [membri72@hotmail.com]

Fuente: tusacordes.com