a b c d e f g h i j k l m n o p q r s t u v w x y z 0-9

Eva Maria

A Palo Seko

			
Intro:  Eva maria se fue buscando el sol en la playa...
e|----------------------------|
B|----------------------------|
G|----------------------------|
D|-----3-3-3---5---3-3-3------|
A|--3--1-1-1---3---1-1-1---3--|
E|--1----------------------1--|




   Riff 2: las mismas notas de antes pero con ritmo ska
e|--------------------------------------|
B|--------------------------------------|
G|--------------------------------------|
D|-----------x-3-x-3--x-5-x-5--x-3-3-3--|
A|--x-3-x-3--x-1-x-1--x-3-x-3--x-1-1-1--|
E|--x-1-x-1-----------------------------|





   Riff 3:  tb las mismas nots pero a toa ostia
e|----------------------------------------------|
B|----------------------------------------------|
G|----------------------------------------------|
D|-------------3-3-3-3-3--5-5-5-5-5--3-3-3-3-3--|
A|--3-3-3-3-3--1-1-1-1-1--3-3-3-3-3--1-1-1-1-1--|
E|--1-1-1-1-1-----------------------------------|





  Riff 4: 
   Ella se marcho y solo me dejo recuerdos de su ausencia
e|--------------------------------------------------|
B|--------------------------------------------------|
G|--------------------------------------------------|
D|--7-7-7-7-7-7------7-7-7-7-7-7-------5-5-5-5-5-5--|
A|--5-5-5-5-5-5------5-5-5-5-5-5-------3-3-3-3-3-3--|
E|--------------------------------------------------|




   Riff 5:
     Sin la menor indulgencia eva maria se fue
e|----------------------------------------|
B|----------------------------------------|
G|----------------------------------------|
D|---3-3-3-3---------------5-5-5-5--------|
A|---1-1-1-1----3-3-3-3----3-3-3-3-----3--|
E|--------------1-1-1-1----------------1--|




             Eso es to, pa cualkier duda o pa lo ke sea:




                  Membri72@hotmail.com

Fuente original ATAME [www.atame.org]
Colaborador original: Oscar [membri72@hotmail.com]

Fuente: tusacordes.com