a b c d e f g h i j k l m n o p q r s t u v w x y z 0-9

Adios Boitila Adios

A Palo Seko

			
Riff 1:  a to ostia
e|------------------------------------------------|
B|------------------------------------------------|
G|------------------------------------------------|
D|------------------------------------------------|
A|--7-----------7-----------7--------------10--5--|
E|--5-5-5-5-5-5-5-5-5-5-5-5-5-5-5-5-5-5----8---3--|




   Riff 2:   Tambien a to ostia
e|----------------------------------------------------|
B|----------------------------------------------------|
G|----------------------------------------------------|
D|---------------7-7-7-7-7-7--------------------------|
A|--7-7-7-7-7-7--5-5-5-5-5-5--3-3-3-3-3-3--5-5-5-5-5--|
E|--5-5-5-5-5-5---------------1-1-1-1-1-1--3-3-3-3-3--|



      La parte final es el riff 1 pero con ritmo diferente
      La cancion es asi de simple, no creo ke farte na.
      En cualkier caso estoy en:



             Membri72@hotmail.com

Fuente original ATAME [www.atame.org]
Colaborador original: Oscar [membri72@hotmail.com]

Fuente: tusacordes.com