a b c d e f g h i j k l m n o p q r s t u v w x y z 0-9

Virgen

6 Voltios

			
VIRGEN
sta kancio es re paja, los punteos son faciles, la wada es despues del 
segundo punteo del intro, skuchen biEN y lleven el ritmo.....chevere.....
E5: kinta en el 7mo traste en la kinta kuerda pes
e5: kinta en el 0 traste ya se la saben, no jodan.....
F#5: es una F#5 menor, osea normal en el segundo traste, 6 kuerda

   A5   F#5  D5   E5
|-----------------------|
|-----------------------|
|--9-9--6-6-------------|x2
|------------7-7--9-9---|
|-----------------------|
|-----------------------|

  A5      F#5      D5     E5
|--------------------------------|
|--------------------------------|
|----4-6----6-4------4-6---------|x2
|--7------4-----7-----------6-7--|
|------------------5------7------|
|--------------------------------|


A5 D5/C#5/D5 F#5 D5/C#5/D5 D5 

   E5        D5....ella persio su.......
|---------------|
|---------------|
|--7-6-4---6-7--|
|--------7------|
|---------------|
|---------------|


D5                    A5                       E5 
ella perdio su virginidad x alguien k no debio ser 
                     D5 
y la verda es k le dolio
                   F#5           D5
le hizo mierda el korazon le dolio
                   F#5           D5 *
le hizo mierda el korazon le dolio

A5                F#5 
porke chucha el asi ella kiere saber donde fallo
A5                         F#5        e5
para k las cosas entre los dos no funcionen
A5                      F#5
hizo todo lo k pudo hacer para el solo fue un juego nada mas
A5                            F#5        e5
y juro k la amo komo a nadie antes pudo haber amado

D5                    A5                          E5 
ella perdio su virginidad por alguien ke no debio ser 
                        D5 
y la verdad es ke le dolio
        E5             A5          
le hizo mierda el korazon 

   A5      F#5      D5     E5
|--------------------------------|
|--------------------------------|
|----4-6----6-4------4-6---------|x2
|--7------4-----7-----------6-7--|
|------------------5------7------|
|--------------------------------|

   A5           F#5          D5           E5
|------------------------------------------------------|
|--------5-3----------5-3----------5-3-----------------|
|----4-6-----6----4-6-----6----4-6-----6--------7-6----|
|--7------------4---------------------------6-7-----9--|x2
|----------------------------5------------7------------|
|------------------------------------------------------|

D5 * 

A5                    F#5
Hay mil formas de amar pero en esta ella se dejo engañar
A5                            F#5              e5
y ahora lo odia como a nadie antes pudo haber odiado
A5                     F#5
Falsas promesas de amor no podian terminar peor
A5                                   F#5               e5
por fin ella se ha dado cuenta k el amor de el no vale nada

D5                    A5                          E5 
ella perdio su virginidad por alguien ke no debio ser 
                        D5 
y la verdad es ke le dolio
                   F#5           D5
le hizo mierda el korazon le dolio
                   F#5           D5 *
le hizo mierda el korazon le dolio

   A5           F#5          D5           E5
|------------------------------------------------------|
|--------5-3----------5-3----------5-3-----------------|
|----4-6-----6----4-6-----6----4-6-----6--------7-6----|
|--7------------4---------------------------6-7-----9--|x2
|----------------------------5------------7------------|
|------------------------------------------------------|
  
   A5         F#5        D5         E5
|-----------------------------------------------|
|-----------------------------------------------|
|--------6----------6----------6-----------6-4--|
|--7-7-7---7--4-4-4---7----------7--------------|x2
|------------------------5-5-5------7-7-7-------|
|-----------------------------------------------|
 
ste ultimo koro va arpejiado

D5                    A5                          E5 
ella perdio su virginidad por alguien ke no debio ser 
                        D5 
y la verdad es ke le dolio
          E5          A5          
le hizo mierda el korazon

NOTA:

*:    E5
   |----------|
   |----------|
   |----------|
   |----6-7---|
   |--7-------|
   |----------|

Fuente original ATAME [www.atame.org]
Colaborador original: Carlos [necrodead6@hotmail.com]

Fuente: tusacordes.com