a b c d e f g h i j k l m n o p q r s t u v w x y z 0-9

Princesa

6 Voltios

			
Esta canción es una de las más pajas de el CD Generación Perdida.

Intro:
Este punteo se repite tambien en 01:01 

|------------------------------------------------------------------|
|------------------------------------------------------------------|
|------------------------------------------------------------------|
|--------7---4-------7---4------7---4------7---4-------------------|
|--5--5----7-------5---7------5---7------5---7---5-----------------|
|---------------7-----------3----------5---------------------------|

|------------------------------------------------------------------|
|------------------------------------------------------------------|
|------------------------------------------------------------------|
|--------7---4-------7---4------7---4------7---4-------------------|
|--5--5----7-------5---7------5---7------5---7---------------------|
|---------------7-----------3----------5---------------------------|

Después exactamente en 02:34 se toca:

|--------7---4-------7---4------7---4------7---4-------------------|
|--5--5----7-------5---7------5---7------5---7---5-----------------|
|---------------7-----------3----------5---------------------------|
|------------------------------------------------------------------|
|------------------------------------------------------------------|
|------------------------------------------------------------------|

|--------7---4-------7---4------7---4------7---4-------------------|
|--5--5----7-------5---7------5---7------5---7---------------------|
|---------------7-----------3----------5---------------------------|
|------------------------------------------------------------------|
|------------------------------------------------------------------|
|------------------------------------------------------------------|
 Outro:
|------------------------------------------------------------------|
|--------------------------------5-----6-6-6-5---------------------|
|--5-5--5-5-5--5-7-7--7-7-7--7-----------------7-------------------|
|----------------------------------5-7-----------------------------| x4
|------------------------------------------------------------------|
|------------------------------------------------------------------|

Por favor cualquier persona que se sepa el punteo o los acordes de 
En el olvido publiquelo,pero si esas TABS no son tuyas 
aunquesea di que no son tuyas no como un gay Daniel.V 
que publico mi punteo de Entre tus manos.
Saludos a todos los Punkers del Perú !!!

Fuente original ATAME [www.atame.org]
Colaborador original: Juanda ! ! ! [elgalas@hotmail.com]

Fuente: tusacordes.com