a b c d e f g h i j k l m n o p q r s t u v w x y z 0-9

Nunca Estaras

6 Voltios

			
esta canción va dedicada a Lorena, Nadya, Fiorella, Alessandra,
 Melissa, Ilse y todas las demás perras que nos hicieron llorar
 a mis patas y a mí


Intro:
 los acordes se tocan debajo del punteo

 F#52  D#5  B5   C#5 todos dos veces
 termina en... F#52

Riff
|--------------------------------------|
|--------------------------------------|
|--------3-4-6--3-4-6-8-6-4-3-1--------|
|--4-4-4------------------------4-4-4--|
|--------------------------------------|
|--------------------------------------|

|--------------------------------------|
|--------------------------------------|
|-4-4-4-4-3-1-------1-1-1-1-3-4-3-1-3--|
|-------------4-4-4-------------------4|
|--------------------------------------|
|--------------------------------------|


|--------------------------------------|
|--------------------------------------|
|------3-4-6-4-3--3-4-6-8-6-4-3-1------|
|-4-4-4---------------------------4-4-4|
|--------------------------------------|
|--------------------------------------|


|--------------------------------------|
|--------------------------------------|
|-4-4-4-4-3-1-------1-1-1-1-3-4-3-1-3--|
|-------------4-4-4-------------------4|
|--------------------------------------|
|--------------------------------------|

Luego...

D#5 B5  F#5  F#52 F5 
D#5 B5  F#5  F#52 F5 
C#5 F5  F#5...

F#52                D#5                      B5 
Ahora no estás, me dejaste solo otra vez y no dejo de pensar
      C#5 
los recuerdos esos buenos momentos
F#52           D#5                         B5     
Te llamé, pero no estabas una vez más, de mensaje te dejé
	C#5             B5
una canción de Milencollin para expresar


D#5		B5		    F#5
Si es que estoy loco ahora es por tí 
	   C#5
pero más creo que siempre fue así
D#5	    B5			F#5
Ella me quiere, yo la llegué a amar
	 C#5           		D#5     B5      F#5   C#5
estaba seguro que lo iba a lograr, lograr...  amar

muteado
D#5 x  B5  C#5   F5  F#52


F#52                  D#5                  
Me enamoré de la chica más linda de la ciudad
   B5   		C#5
robó mi corazón, con sus besos y sus ojos azules
F#52        D#5                   B5
Te amaré una carta más escribiré y te pido perdón 
           C#5		 B5
si es que a veces me porto como un huevón


D#5		B5		F#5
Escupo en la calle hablo vulgar
	      C#5
me visto atorrante se que estoy muy mal
D#5	    B5		    F#5
ella me quiere y me llegó a amar
	 C#5           		D#5     B5      F#5   C#5
estaba seguro que lo iba a lograr, lograr..., amar


muteado
D#5 x  B5  C#5   F5  F#52


RIFF


F#52                D#5
Ahora si estás y yo soy feliz una vez más
       B5             C#5              
quisiera poder parar...el tiempo en este momento



Aquí parece que Alexis va a llorar cantando xke
 lo canta con bastante fuerza

D#5		B5		    F#5
Si es que estoy loco ahora es por tí 
	   C#5
pero más creo que siempre fue así
D#5	    B5			F#5
Ella me quiere, yo la llegué a amar
	 C#5           		D#5     B5      F#5   C#5
estaba seguro que lo iba a lograr, lograr...  amar


D#5 x  B5  C#5   F5  F#52


Se repite el intro con todo y el riff

termina en F#52



Creo ke esta bien claro y no keda nada más ke decir...
EStá rekontra correcta!
¡Esta es una buena canción karajo! Me hace acordar de mi 
ex enamorada con kien tengo una palta tremenda y ya ni nos
hablamos, ni nos miramos xke nuestra amistad se fue a la mierda! 
¡VERDAD LORENA!

Ya ahora si un saludo para mis patas de Vorax 
gracias Nirvo por ayudarme con los acordes pero 
aún así me sigues llegando al pincho a mi banda 
XlaRpM, Giancarlos, Renzo LUCHO SERRANO NOS LLEGASTE AL PINCHO
y a la gente ke nos apoya RUDY, Chicho y el gordito felíz incluidos

KeeP On PuNK RoCkIn!
El PuNK No es EtiKEta Ni Moda...ES AkTiTUd!

Fuente original ATAME [www.atame.org]
Colaborador original: Inyector [hunter_17@latinmail.com]

Fuente: tusacordes.com