a b c d e f g h i j k l m n o p q r s t u v w x y z 0-9

Madurar

6 Voltios

			
No digo que las otras versiones
esten mal pero creo que esta esta
MEJOR  xD

Intro:

|-----------------------------|
|-----------------------------|
|-----------------------------|
|-666--777--66--999--777--66--|
|-777--777--77--777--777--77--|
|-----------------------------|

  G#5           G#5
|--------------------------|
|--------------------------|
|--------------------------|
|-666-7-7-6-4----66--7-6-4-|
|-666---------6--66--------|
|-444------------44--------|

  A5         B5
|----------------------|
|----------------------|
|----------------------|
|-777-7-6-4--999-7-6-4-|
|-777--------999-------|
|-555--------777-------|

Se Repite
 E5        G#5      D#5
|----------------------------|
|----------------------------|
|-9------------------6-------|
|-9---------6---4-6--6---4-6-|
|-7-7-9-11--6-7------4-7-----|
|-----------4----------------|

|--------------|
|--------------|
|-7-6-4--7-6-4-|
|--------------|
|--------------|
|--------------|

 E5       G#5      D#5
|---------------------------|
|---------------------------|
|-9-----------------6-------|
|-9-9-7-6--6-9-7-6--6---4-6-|
|-7--------6--------4-7-----|
|----------4----------------|

|------------------|
|------------------|
|-(7-6-4--7-6-4)x2-|
|------------------|
|------------------|
|------------------|

   A5-B5-A5-B5

   E5-E5-D#5-C#5
   G#5-G#5-F#5-Em

   C#5-B5-A5-B5

E5
  Me siento solo
G#5
  Me siento tonto
C#5             B5              A5
  Pero no quiero llegar al punto de
  B5
  No sentir nada

E5
  Se paso el tiempo
G#5
  Y no maduraste
C#5       B5       A5
  Eso se te hace dificil de aceptar
         B5
  Creo que es hora de cambiar.

   E5-E5-D#5-C#5
   G#5-G#5-F#5-Em

E5
  Trataste de buscarle
G#5
  Un sentido a tu vida
C#5          B5    A5
  Encontraste mas de una razon
  B5
  Para seguir aca

E5
  Pero no fue suficiente
G#5
  Aca todo te aburria
C#5           B5              A5
  Y si es que fue facil perder el control
  B5
  Ahora es dificil volverlo a tomar

      E5-D#5-C#5

     |-----------|
     |-----------|
     |-----------|
     |--7-6-4----|
     |--------7--|
     |-----------|

                                        |-----------|
  Y en tu cabeza suena                  |-----------| Este punteo
                                   <--  |-----------| se toca en
  La voz de tu viejo                    |-----------| este verso
                                        |--6--4-----| Uds saquen
  Que te repite que tienes que madurar  |--------7--| en donde

G#5
  Ya vas a ser mayor de edad
   G#5
  Y sigues siendo el mismo idiota
  C#5                       B5
  en el camino que vas un carro nunca tendras.

E5
  No quedan neuronas
G#5
  Por quemar
C#5       B5           A5     B5
  Nunca supiste cuando parar
E5
  Ahora tienes lo que mereces
G#5
  Castigado otra vez
C#5      B5            A5     B5-A5
  Nunca supiste cuando Parar

   E5-E5-D#5-C#5
   G#5-G#5-F#5-Em

     |-----------|
     |-----------|
     |-----------|
     |--7-6-4----|
     |--------7--|
     |-----------|

                                        |-----------|
  Y en tu cabeza suena                  |-----------|
                                   <--  |-----------|
  La voz de tu viejo                    |-----------|
                                        |--6--4-----|
  Que te repite que tienes que madurar  |--------7--|

G#5
  Ya vas a ser mayor de edad
   G#5
  Y sigues siendo el mismo idiota
  C#5                       B5
  en el camino que vas un carro nunca tendras.

E5
  No quedan neuronas
G#5
  Por quemar
C#5       B5           A5     B5
  Nunca supiste cuando parar
E5
  Ahora tienes lo que mereces
G#5
  Castigado otra vez
C#5      B5            A5     B5-A5
  Nunca supiste cuando Parar

     E5-D#5-C#5

     |-----------|
     |-----------|
     |-----------|
     |--7-6-4----|
     |--------7--|
     |-----------|



Por siacaso esta es la version de Dia Plastico
donde la tocane en concierto

Fuente original ATAME [www.atame.org]
Colaborador original: Marco Feijoo [he_korn@hotmail.com]

Fuente: tusacordes.com