a b c d e f g h i j k l m n o p q r s t u v w x y z 0-9

Lucas

6 Voltios

			
LUCAS
ste bajo es medio monse, asta yo ke toko guitarra lo sake al toke 
hay ta, ya ke hay un kulo de webones ke lo tokan astal kulo
APRENDAN MIERDA!!!!!!

1.Intro
|----------------------------------------------------------|
|----------------------------------------------------------|
|--9-9-999999----------------------------------------------|x2
|--------------9-9-999999--11-11-111111111111--7-7-777777--|
                         ste es un ONCE x siaka

2.Versos
|---------------------------------------15-----------|
|------------------------------15-16-18----18-16-15--|
|-----13-14-13----13-14-13--16-----------------------|
|--14----------14------------------------------------|

|-----15-16-15----15-16-15----------------------------|
|--13----------13--------------13-16-13-----15-18-15--|
|---------------------------14-----------16-----------|todo x2
|-----------------------------------------------------|

3.koros
|---------------------------------------------------------------------------------|
|---------------------------------------------------------------------------------|
|--9999999----------------------------------------9999999-----------9-9-9-8-8-11--|
|----------9999999-1111111111111-6666666-77777777---------999999999---------------|

4.intro 
5.verso
6.koro x2

7.en el solo de guitarra solo? mas parece un desafinacion de karajo!
|------------------------------------------------------------------------|
|------------------------------------------------------------------------|
|--999999999999999999----------------------------------------------------|x2
|---------------------999999999999999999-111111111111-77777777-99999999--|
                                      aka son 16 veces ONCE

5.Solo x4 el solo ey el verso son iguales!!!

6.sto se toka despues del solo de bajo y guitarra
|-----------------------------------------------------------|
|-----------------------------------------------------------|
|--9-9------------------------9-9-------------9-9-9-8-8-11--|
|-------9-9--11-11--6-6--7-7-------9999999999---------------|


7.koro
8.intro

NADA MAS AHI AKAGA!!!!!!!
(les he puesto los numeros porsiaka, komo por ahi hay gente medio awebaa, no marcial?

Fuente original ATAME [www.atame.org]
Colaborador original: Carlos [necrodead6@hotmail.com]

Fuente: tusacordes.com