a b c d e f g h i j k l m n o p q r s t u v w x y z 0-9

Idiota

6 Voltios

			
Este es el verdadero bajo que toca emilio, es super
facil, este es un tema original de vandals, espero 
que la disfruten, ahi va:


Intro:

G------------------------------------------------
D------------------------------------------------
A---------------------------7--10-10-8-7-8-7-----
E--8-7-8----8-7-8---8-7-8------------------------ 2x

Te fuiste, estoy solo...............perderte asi.

G------------------------------------------------
D------------------------------------------------
A---------------------------7--10-10-8-7-8-7-----
E--8-7-8----8-7-8---8-7-8------------------------ 2x

A:
Entra la guitarra...el bajo sigue como en el intro

Del concierto...regresar.....

G:---------------------------------------------------
D:---------------------------------------------------
A:----------22---------------------------------------
E:--44--22------4444---------------------------------

y digo....esto no va a funcionar...

G------------------------------------------------
D------------------------------------------------
A----7--10-10-8-7-8-7----------------------------
E------------------------------------------------ 


y sigo...tocando...no puedo seguirte amando........

G:---------------------------------------------------
D:---------------------------------------------------
A:-----------------------22222222--------------------
E:--44444444--222222222------------44444444----------


Fue chebere el verano junto a ti......era un idiota.

G:---------------------------------------------------
D:---------------------------------------------------
A:--2x15-------------------------------------------
E:----------2x15--4x15--2x15-------------------

Repetir A

Me quede afuera...

G:---------------------------------------------------
D:---------------------------------------------------
A:----------22---------------------------------------
E:--44--22------4444---------------------------------


y digo esto no va a funcionar...

G------------------------------------------------
D------------------------------------------------
A----7--10-10-8-7-8-7----------------------------
E------------------------------------------------ 

Y sigo tocando.....................estare bien.

G:---------------------------------------------------
D:---------------------------------------------------
A:-----------------------22222222--------------------
E:--44444444--222222222------------44444444----------


Fue chebere el verano junto a ti...

G:---------------------------------------------------
D:---------------------------------------------------
A:--2x15-------------------------------------------
E:----------2x15--4x15--2x15-------------------

Repetir A


Fue chebere el verano junto a ti...

G:---------------------------------------------------
D:---------------------------------------------------
A:--2x15-------------------------------------------
E:----------2x15--4x15--2x15-------------------

Repetir A

yo era un idiota, yo era un idiota..tu seras idiota.

Un saludo para la gente de los olivos:
Anghelo, chino, Krosty, Franco, loco...
Y a toda la gente que hace crecer la escena.
Cualquier Problema, a mi correo, gracias!!

Fuente original ATAME [www.atame.org]
Colaborador original: Jose Porras Pizarro [pepe_free@hotmail.com]

Fuente: tusacordes.com