a b c d e f g h i j k l m n o p q r s t u v w x y z 0-9

Generacion Perdida

6 Voltios

			
esta es generacion perdida en 5tas chequen bien

intro:
el intro q siempre ponen en atame esta mas mal q no c q cosa asi
q ahi les va el verdadero:

|------------------------------------------------0-----
|--4---5---4--7-5-0---4--5-4-5-4--------1--3-1-----3-0-
|-4--4---4----------4---4-4------6----2---2-2--2-------
|------------------------------------------------------
|------------------------------------------------------
|------------------------------------------------------



|--------------------------------------|
|--------------------------------------|
|---3--4---6-------1---2--4------------|
|-4---4--4-------2----2--2-------------|
|--------------------------------------|
|--------------------------------------|


versos:

|-------------------------------------|
|-------------------------------------|
|----11----9-11-9-8-6-----------------| 
|-9--11-6--9-11-9-8-6-----------------|
|-9--9--6--7-9--7-6-4-----------------|
|-7-----4-----------------------------|


coro:
|--------------------------|
|--------------------------|
|-----11-9--------11-9-11--|
|--9--11-9-----9--11-9-11--|
|--9--9--7-----9--9--7-9---|
|--7-----------7-----------|

Fuente original ATAME [www.atame.org]
Colaborador original: diego [diegorojo182@atame.com]

Fuente: tusacordes.com