a b c d e f g h i j k l m n o p q r s t u v w x y z 0-9

En El Olvido

6 Voltios

			
Esta cancion es una de las mas bravasas de 6 voltios, asi que 
aca unas correciones de otras versiones mandadas anteriormente. 
Claro esta que con una gran ayuda de los que ya habian mandado 
esta transcripcion ya que las notas y liricas estan correctas. 


F#5= 244XXX
*C#5= 143XXX
B5=  0244XX
C#5= 0466XXX
C5=032XXX

-Antes de entrar a los coros, Alexis raspa la 5 cuerda hacia 
arriba En direccion a las clavijas con una uña.

INTRO          
|------------------------------------------------------------------------|
|------------------------------------------------------------------------|
|------------3----------------3---------4-3-1-4-3-1--1-1---4-3-1-3-1-----|
|--4--4-4-6-----4----3--3-3-4--3---4----------------------------------3-4|
|------------------------------------------------------------------------|
|------------------------------------------------------------------------|

F#5                        *C#5                  B5
Estoy tratando de encontrar la solución en otra relación
        C#5
pero no pasa nada nunca funciona
F#5         C#5       B5          C#5  
Estoy solo, aburrido, pensando en tí otra vez

F#5                   C5            *C#5             B5       C#5               
Pero nunca me amaste, me dejaste caer en el olvido, no puedo olvidarte
F#5       C5                   *C#5     B5      C#5
Porque tuvo ke ser así, no lo entiendo  No lo entiendo

F#5                   *C#5                 B5                C#5             
|------------------------------------------------------------------------|
|------------------------------------------------------------------------|
|------------3----------------3---------4-3-1-4-3-1--1-1---4-3-1-3-1-----|
|--4--4-4-6-----4----3--3-3-4--3---4----------------------------------3-4|
|------------------------------------------------------------------------|
|------------------------------------------------------------------------|


F#5                   *C#5
Todo lo ke había por ver está muy raro y ya se
B5                         C#5
vió y no kedan esperanzas de ke vuelva a ser mia
F#5         *C#5
Estoy solo, confundido,pensando en tí otra vez

F#5                   C5            *C#5             B5       C#5               
Pero nunca me amaste, me dejaste caer en el olvido, no puedo olvidarte
F#5       C5                   *C#5     B5      C#5
Porque tuvo que ser así, no lo entiendo. No lo entiendo

SOLO

F#5               *C#5              B5                     C#5
No soy un cagado, no soy el mejor, no soy el indicado para tener tu corazón
F#5                 *C#5             B5                    C#5
No quedan rencores, no queda dolor, queda aceptarlo y revotar en mi corazón

Rapido para que suene mejor
|------------------------------|
|---------------4--------------|
|--6-5-3-6-5-3----6-5-3-5-3----|
|---------------------------6--|
|------------------------------|
|------------------------------|

F#5       C5                   *C#5     B5      C#5
Porque tuvo que ser así, no lo entiendo. No lo entiendo.
B5      C#5      B5      C#5
No lo entiendo, mejor dejarte en el olvido


B5      C#5     B5      C#5
No lo entiendo, no lo entiendo 
  B5      C#5              F#5
mejor dejarte en el olvido

Fuente original ATAME [www.atame.org]
Colaborador original: Enrique Marín Bermúdez [enriquemartin_14@hotmail.com]

Fuente: tusacordes.com