a b c d e f g h i j k l m n o p q r s t u v w x y z 0-9

Chicas Tontas

6 Voltios

			
CHICAS TONTAS
para los punteo me ayude kon los ke ya estaban aka
y una vez mas a mi princesa MARLYN al fin kambiaste, TE AMO KOMO MMIERDAAAAAAAAAA......

INTRO
  B5             F#5               G#5                 E5
|--------------------------------------------------------------|  
|-0-0-4-0-5-0-4-0-7-0-5-0-4-0-5-0-0-0-4-0-2-0-4-0-5-0-4-0-2-0--|
|--------------------------------------------------------------|
|--------------------------------------------------------------|x2
|--------------------------------------------------------------|
|--------------------------------------------------------------|

B5
esperando una llamada

E5                   F#5
viernes por la noche no tengo nada ke hacer

B5
aburrido de esta ciudad de mierda

E5                     F#5
sera ke no me incluyes en tus planes otra vez

B5
nunka voy a entender a todas esas chikas tontas

E5                        F#5
el viernes por la noche buskando a su principe azul

B5
kizas algun dia una de ellas venga a buskarme

E5                            F#5
enkontrara a su principe rojo en kuento de terror


B5 E5 F#5 E5

|------------0-2-4-2-0--2-4-6-4-2--0-2-0------|
|-0-2-4-2-0------------------------------4-2--|
|---------------------------------------------|
|---------------------------------------------|
|---------------------------------------------|
|---------------------------------------------|

|--------------------------------------------------------------|
|-0-0-4-0-5-0-4-0-7-0-5-0-4-0-5-0-0-0-4-0-2-0-4-0-5-0-4-0-2-0--|
|--------------------------------------------------------------|
|--------------------------------------------------------------|
|--------------------------------------------------------------|
|--------------------------------------------------------------|

B5             
kuien te krees para decirme a mi

E5                    F#5
todo lo korrekto kon todo lo ke hablas mal de mi

B5
puros chismes, palabras a mis espaldas

E5                 F#5
chikas tontas kon ellas me siento huevon


B5
nunka voy a entender a todas esas chikas tontas

E5                        F#5
el viernes por la noche buskando a su principe azul

B5
kizas algun dia una de ellas venga a buskarme

E5                            F#5
enkontrara a su principe rojo en kuento de terror


A5 E5 D5 F#5 G#5 E5 B5 F#5

G#5                  E5
chikas tontas con simples karas de valor

B5            F#5
superficiales, no son tipo

G#5         E5
orgulloso de lo ke soy

B5                         F#5
por ellas no voy a kambiar no piensen algo ke no soy
 
G#5                  E5
chikas tontas con simples karas de valor

B5            F#5
superficiales, no son tipo

G#5         E5
orgulloso de lo ke soy

B5                         F#5                      B5
por ellas no voy a kambiar no piensen algo ke no soy


outro:
  B5....................
|-------------------------|
|--0-0-2-0-0-5-5-4-2-0-2--|        
|-------------------------|un huevo de veces los tiempos van kambiando
|-------------------------|
|-------------------------|
|-------------------------|


NOTA:

F#5 se toca:  |--x--| pero EN EL INTRO F#5 se toca |--x--|        tambien SOLO EN EL INTRO E5 se toca |--x--| y el resto de la kancion E5 se toka |--x--|
              |--x--|                              |--x--|                                            |--x--|                                     |--x--|
              |-11--|                              |--x--|                                            |--x--|                                     |--9--|
              |-11--|                              |--4--|                                            |--2--|                                     |--9--|
              |--9--|                              |--4--|                                            |--2--|                                     |--7--|
              |--x--|                              |--2--|                                            |--0--|                                     |--x--|

ah....y en la tabulacion ke mande de generacion perdida no puse lo mismo komo se toca F#5
asi ke mas de un huevon va a decir ke mi tab esta hastal pincho
PERO NO ES ASI MIERDA, SOLO ME OLVIDE PONER UNA NOTA PA LOS HUEVONES KE NO TIENEN NI MIERDA DE OIDO

antes ke me olvide, kiero agradecer a dos patas ke me aguantaron komo mierda para sakar esta kancion
a huevo y a chistian, no huviera sacado esta kancion sin su puta pero bien recibida ayuda, gracias...

Ahhhhhhhhh...... una ultima cosa, al sakar esta kancion me di cuenta de ke hay un huevo de flakas de mi kole
ke son unas chikas tontas, por no decir kreidas de mierda, malparidas ke se komputan la gran kagada, y par koncha hablan mal
de mi sin konocerme, pero para a mi llega al reverendo huevo lo ke mierda digan, ORGULLOSO DE LO KE SOY POR ELLAS NO VOY A KAMBIAR; NO PIENSEN ALGO KE NO SOY

Fuente original ATAME [www.atame.org]
Colaborador original: Carlos [necrodead6@hotmail.com]

Fuente: tusacordes.com